• Song:

    Clenching The Fists Of Dissent

  • Artist:

    Machine Head

Yes, I know MH uses dropped B, 
but I arranged it for standard. For me it sounds right .I don?t know 
exactly how many times you need to play this pieces, so you?ll have to hear it.



*Acoustic guitar     x6

E|---------------------------------------|
B|--3---------3-3-2---0----------3-3-2---|
G|---------2----------0-------2----------|
D|---------------------------------------|
A|--2------------------------------------|
E|---------------------------------------|


*Electric guitar  (clean)   after the fourth time acoustic, the electric guitar falls in       

E|---------------------------------------|  \
B|--3---------3-3-2---0----------3-3-2---|   |
G|--------------------0------------------|   |  x4
D|---------------------------------------|   |
A|--2------------------------------------|   |
E|---------------------------------------|  /


E|--------------------------|
B|--2------3--3--2?2--------|
G|--------------------------|
D|--4--------------4--------|
A|--------------------------|
E|--------------------------|
Show more