• Song:

    Supermercado

  • Artist:

    Mama Pulpa

Grupo: Mama Pulpa
Cancion: Supermerkado
By: roots_bass
 
verso...
G | --------------7-7-7-5----------------------
D | 5--7-88-7-5-4----------8----7-8-7---7-8-7--
A | -------------------------6-----------------
E | ---------------------------------6---------

G | --------------7-7-7-5----------------------
D | 5--7-88-7-5-4----------8----7-8-7----------
A | -------------------------6----------5-5-5--
E | ---------------------------------6---------

prekoro...
G | -------------------------------------------------------
D | -------------------------------------------------------
A | -6-6-------5-5-------------6-6-------------------------
E | -------6-6--------3-3-3----------6-6--1-1-1-1-1-1------

koro (ai me faltaron unos arreglos pero vale madres)
G | -----------------------------------------------
D | 1-1-1--1---------------------------------------
A | ----------1-1-1--1-----------------------------
E | ---------------------1-1-1--1--3-3-3--3--------

postkoro (esto se toka despues del segundo koro)

G | 0*-------3-2-0*-------7-5-3-2
D | ---4*-1*--------4*-1*--------
A | -----------------------------
E | -----------------------------
(la * es dejar sonando)

ai me faltaron unas kosillas del koro pero pues ya ke
www.purevolume.com/burdel o www.myspace.com/burdel
Show more