• Song:

    Magic Dream

  • Artist:

    Marco Arajo

sponsored links
Title: MAGIC DREAM
Artist: MARCO ARA┌JO
Album: MAGIC DREAM
Music: MARCO ARA┌JO
Copyright: MARCO ARA┌JO
Tempo = 130

Legend: L - tied note  x - dead note  h - hammer on/pull off
b - bend  s - slide    ~ - vibrato    g - ghost note
> - accentuated note   t - trill      M - palm mute
. - staccato           P - popping (bass)
S - slapping (bass)    + - tapping    W - wide vibrato
< - fade in            w - whammy bar
= - tremolo picking    v - brush up
^ - brush down         V - pick stroke up
n - pick stroke down

                   solo:1                                  
----------------------------------------------------|
--------------------3h-5h-3-------------------------|
--7-----------------------------4~------------------|
--7--------------------------------------5----------|
--5-------------------------------------------------|
----------------------------------------------------|

                                                     
----------------------------------------------------|
----------------------------------------------------|
----------------------------------------------------|
--7--------------------------5--------7~------------|
-----------5--------3-------------------------------|
----------------------------------------------------|

                                              
----------------------------|----------------|
----------------------------|----------------|
--4--5--7--5b----------4----|----------------|
--------------------7-------|--5--7~---------|
----------------------------|----------------|
----------------------------|----------------|

                                                                      
----------------------------------------------------|--7-------------|
--7h-8h-7-----------------7-----8-----10----8-------|-----8~---------|
--------------9~------------------------------------|----------------|
----------------------------------------------------|----------------|
----------------------------------------------------|----------------|
----------------------------------------------------|----------------|

                                                    
----------|----------|----------|-------|----------|
--0--1----|--3--5----|--3--1----|--3----|--8--7----|
----------|----------|----------|-------|----------|
----------|----------|----------|-------|----------|
----------|----------|----------|-------|----------|
----------|----------|----------|-------|----------|

                                                     
----------------------------------------------------|
--5h-7s-5--3-----------3h-5s-3----------------------|
--------------------------------4-------------------|
--------------------------------------------5-------|
----------------------------------------------------|
----------------------------------------------------|

                                                          
----------------------------|
----------------------------|
----------------------------|
--7--------5--7~------------|
-----5--3-------------------|
----------------------------|

solo:2
|-------|----------|
|-------|----------|
|--7----|----------|
|--7----|----------|
|--5----|--7h-12h--|
|-------|----------|

                                                     
----------------------------------------------------|
----------------------------------------------------|
----------------------------------------------------|
-----------------------------------5-----7----------|
--5-----------------------5--7--9-------------------|
----------------------------------------------------|

                                      W                         
----------------------------------------------------|----------|
----------------------------------------------------|----------|
--------------------------------------4b------------|--0h-9~---|
--12h7h-9h-12h5h-7h-12h4h-5h-12h2h-4----------------|----------|
----------------------------------------------------|----------|
----------------------------------------------------|----------|

                                                     
----------------------------------------------------|
----------------------------------------------------|
--12h7h-9h-12h5h-7h-12h4h-5h-12h2h-4--4~------------|
----------------------------------------------------|
----------------------------------------------------|
----------------------------------------------------|

                                                          
----------------------------|----------------------------|
----------------------------|----------------------------|
--9~-11~---9~-7~-9~---------|--7~-9~----7~-5~-7~---------|
----------------------------|----------------------------|
----------------------------|----------------------------|
----------------------------|----------------------------|

                                                     
--5h-2h-3--5h-2h-3h-7h-3h-5h-7h-3h-5h-8h-5h-7h-8h---|
----------------------------------------------------|
----------------------------------------------------|
----------------------------------------------------|
----------------------------------------------------|
----------------------------------------------------|

                                                     
--5h-7h-10h7h-8h-10h7h-8h-12h8h-10h12h8h-10h8h-5h---|
----------------------------------------------------|
----------------------------------------------------|
----------------------------------------------------|
----------------------------------------------------|
----------------------------------------------------|

                                                     
--7h-10h7h-8--15-14-12------------------------------|
-----------------------15-13-12----12-13-15---------|
--------------------------------14------------------|
----------------------------------------------------|
----------------------------------------------------|
----------------------------------------------------|

                                                      
--------14-17---------------------------------------||
-----15-------15~-----------------------------------||
--14------------------------------------------------||
----------------------------------------------------||
----------------------------------------------------||
----------------------------------------------------||
Show more
sponsored links
sponsored links