• Song:

    Tom Falso

  • Artist:

    Mariana Rios

Riff 1:
E | ---------------------------------------- | 
B | ---------------------------------------- | 
G | ---------------------------------------- | 
D | ---------------------------------------- | 
A | --------------------------------------3- |   (x6)
E | -3-5-3-5-3-5-3-5-----3-5-3-5-3-5-3-5---- | 

( A5 C5 G5 D5 )

A5          C5            G5       D5        A5
Deixa eu ser um pouco seu e de ningu?m mais.
          C5                      G5
E eu que fui totalmente claro pra voc?,
               D5
a vida inteira passei por n?s dois.
A5             C5
Nada mais que tudo o que eu fingi sentir
G5                        D5
era uma verdade estranha que agora passa.
      A5                   C5
Mas eu sei que nada vai mudar. Eu sei
     G5                 D5
que tudo era saudade e vontade de te ter.
   A5           C5   G5                    D5
Eu vi voc? chegar com a sua moto envenenada.
   A5         C5    G5                 D5
Eu vi voc? parar pra beijar o rosto dela.
A5            C5
Olha pra mim , que eu vou te desafiar.
G5            D5
Olha pra mim , que eu sei te manipular.
A5           C5
Olha o jeito que eu vou at? voc?.
G5           D5               E5
Olhe pra ver e fa?a como quiser.

Refr?o:
 A5                     C5
Eu deixo voc? ir, mas n?o pense em voltar.
G5                        D5
Se o tempo n?o disser, ent?o siga o que ? bom.
 A5                     C5
E fala qual ? o som que voc? escuta,
         G5                    D5
porque o que eu escuto ? o seu tom falso.
G5                    D5
 O que eu escuto ? o seu tom falso.

A5          C5            G5       D5        A5
Deixa eu ser um pouco seu e de ningu?m mais.
             C5                      G5
E eu que fui totalmente claro pra voc?,
               D5
a vida inteira passei por n?s dois.
A5             C5
Nada mais que tudo o que eu fingi sentir
G5                        D5
era uma verdade estranha que agora passa.
       A5                   C5
Mas eu sei que nada vai mudar. Eu sei
     G5                 D5
que tudo era saudade e vontade de te ter.
A5            C5
Olha pra mim , que eu vou te desafiar.
G5            D5
Olha pra mim , que eu sei te manipular.
A5           C5
Olha o jeito que eu vou at? voc?.
G5           D5               E5
Olhe pra ver e fa?a como quiser.

E | ---------------------------------------- | 
B | ---------------------------------------- | 
G | ---------------------------------------- | 
D | ---------------------------------------- | 
A | --------------------------------------3- | 
E | -3-5-3-5-3-5-3-5-----3-5-3-5-3-5-3-5---- | 


Refr?o 2x:
 A5                     C5
Eu deixo voc? ir, mas n?o pense em voltar.
G5                        D5
Se o tempo n?o disser, ent?o siga o que ? bom.
 A5                     C5
E fala qual ? o som que voc? escuta,
         G5                    D5
porque o que eu escuto ? o seu tom falso.
G5                    D5
 O que eu escuto ? o seu tom falso.

E | ---------------------------------------- | 
B | ---------------------------------------- | 
G | ---------------------------------------- | 
D | ---------------------------------------- | 
A | --------------------------------------3- |   (4x)
E | -3-5-3-5-3-5-3-5-----3-5-3-5-3-5-3-5---- | 
Show more