• Song:

    The Nobodies (Acoustic)

  • Artist:

    Marilyn Manson

sponsored links
Artist: Marilyn Manson
Song: The Nobodies (Acoustic)
Tabbed by: SonnePT
Tuning: Standard (E A D G B e)
______________________________
Key:
~ = Let ring
/ = Slide down

Intro/Verse (Yesterday I was dirty...)
e|---------------------------------------------------------|
B|----1-1----1-1----1-1----1-1----1------1------1-1----1-1-|
G|-----2------2------2------2------2------2------2------2--| 
D|----------------------------------2-2----2---------------|
A|--0------0------3------3--------------------0------------|
E|------------------------------0---------------------3----|


Chorus (We are the nobodies, Wanna be somebodies..)
e|--------------------------|
B|--------------------------|
G|--------------------------| 
D|--7----10----2----7--5----|
A|--7----10----2----7--5----|
E|--5----8-----0----5--3----|


Break (Some children died the other day...)

e|------------|
B|------------|
G|------------|
D|--7----3----|
A|--7----3----|
E|--5----1----|

and then:

e|---------------|
B|---------------|
G|---------------| 
D|--2~---1/2-0---|
A|--2~---------3-|
E|--0~-----------|


End riff:
e|--------------------------------|
B|--------------------------------|
G|--------------------------------|
D|--7--------7--------7--------7--|
A|--7--------7--------7--------7--|
E|--5--------5--------5--------5--|


Riffs┬┤ Order:
Intro x3
Chorus x2
Intro x2
Chorus x2
Break x4
End Riff x1
Intro x4
Chorus x2
End x1
Show more
sponsored links
sponsored links