• Song:

    This Ol Cowboy

  • Artist:

    Marshall Tucker Band

-------------------------------------------------------------------------------
			   This 'Ol Cowboy - Marshall Tucker Band
-------------------------------------------------------------------------------

This tab is from another site, i did NOT tab it.

This Ol'Cowboy
Marshall Tucker Band
>From the Album-"Where We All Belong"
1974

Chords:

     G6sus  Dmaj7 (xx0222@1)  G (320003@1)    F#m (244222@1)   Em (022000@1)    Ae------2------2------3-------2-----------------| (x02220@1)B------0------2--------------2--------------2--|
G------0------2--------------2--------------2--|
D----------------------------2-------2------2--|
A--------------------2---------------2---------|
E--------------------3-------------------------|


 Intro:


e--17-15--14-----14----------------------------|
B------------17-----17--15-14--15-14--12-14----|
G-------------------------------------------14-|
D----------------------------------------------|
A----------------------------------------------|
E----------------------------------------------|

 Main Riff:

 G6sus
e--3--2--3---2--3--5--5---3--2--3---2--3--5--5-|
B----------------------------------------------|
G----------------------------------------------|
D----------------------------------------------|
A----------------------------------------------|
E----------------------------------------------|

                     Dmaj7e--3---2---3---2------------3---2---2---5---5--| (xx0222@1)B------------------3---------------------------|
G----------------------2-----------------------|
D----------------------------------------------|
A----------------------------------------------|
E----------------------------------------------|


Intro + Main Fill (Twice)


         G6sus
Well I'm sittin' down in San Anton'

              Dmaj7Waiting (xx0222@1)on an eight o'clock train

   G6sus
My woman left me here last night

                  Dmaj7Things (xx0222@1)ain't been quite the same

       G6sus
I gotta get back to Dallas

            Dmaj7And (xx0222@1)tie up a few loose ends

          G6sus
I'm gonna work a week make a hundred dollars

               Dmaj7Aw (xx0222@1)and hit the road again

            GSo (320003@1)I don't want you to think


That you're the first one

           Dmaj7To (xx0222@1)leave me out here on my own

           G (320003@1)                F#mCause (244222@1)this ain't gonna be the first time

     Em (022000@1)    A (x02220@1)          Dmaj7 (xx0222@1)    G6sus + Main
This ol' cowboy spent the night alone

    G6sus
Now honey I've been a fool but a bigger fool

                 Dmaj7I (xx0222@1)can't remember when I've been

       G6sus
Just to open up my heart

           Dmaj7And (xx0222@1)let you walk right in

     G6sus
Now there's one thing in this life

      Dmaj7Ain't (xx0222@1)hard for me to do

         G6sus
That's as soon as I kiss the lips of another woman

          Dmaj7I'm (xx0222@1)gonna forget all about you

            GSo (320003@1)I don't want you to think


That you're the first one

           Dmaj7To (xx0222@1)leave me out here on my own

        G (320003@1)                F#mNo (244222@1)this ain't gonna be the first time

     Em (022000@1)    A (x02220@1)          Dmaj7 (xx0222@1)     G6sus + Main
This ol' cowboy spent the night alone


Solo: Verse chords + Main Riff (Twice)

       G6sus
If you wrote all the woman's names down I know

           Dmaj7And (xx0222@1)let me pick one out

        G6sus
I don't think there'd be one in the whole bunch

             Dmaj7Aw (xx0222@1)I'd give a hoot about

            GSo (320003@1)I don't want you to think


That you're the first one

               Dmaj7To (xx0222@1)leave this ol' boy out here on his own

           G (320003@1)                F#mCause (244222@1)this ain't gonna be the first time

     Em (022000@1)    A (x02220@1)          Dmaj7This (xx0222@1)ol' cowboy spent the night alone

        G (320003@1)                F#mNo (244222@1)this ain't gonna be the first time

     Em (022000@1)    A (x02220@1)          Dmaj7 (xx0222@1)     G6sus + Main
This ol' cowboy spent the night alone

End: G F#m Em A (Dmaj7)

Show more