Hi, This is a guitar tab to the Halo Reach song Ashes, it is originally played on Chello
but i transposed it to guitar, if anyone can figure out the part after this,       
e-mail me at siikvenom22@gmail.com

-------------------------------------------------------------------------------
			     Ashes - Halo Reach
-------------------------------------------------------------------------------
Tabbed by: Little Wolfling
Email: Siikvenom22@gmail.com

Tuning: EADGBe

e|---------------------------------------------------------------------------|
B|---------------------------------------------------------------------------|
G|---------------------------------------------------------------------------|
D|--------------------------------1-----3-----4------------------------------|
A|-----3--4--3-----3--4--3-----4-----4-----4-----4---------------------------|
E|--1-----------1-----------2------------------------------------------------|

e|---------------------------------------------------------------------------|
B|---------------------------------------------------------------------------|
G|---------------------------------------------------------------------------|
D|--------------------------------1-----4-----1------------------------------|
A|-----3--4--3-----3--4--3-----4-----4-----4-----4~~~~-----------------------|
E|--1-----------1-----------2------------------------------------------------|

That's all i could transpose... enjoy.
P.S. sounds great with heavy distortion ^_^
Show more