• Song:

    Your Stories, My Alibis

  • Artist:

    Matchbook Romance

  • Album:

    Stories and Alibis

sponsored links
MATCHBOOK ROMANCE
YOUR STORIES, MY ALIBIS
Tuning - Drop D
Tabbed by: Natoma
Email: blinkeranthem82@hotmail.com

====================================

Intro pt. I (palm mute)
Guitar 1          
-----------------------------------
-----------------------------------
-----------------------------------
---------10-10---------------------
-----8-8-----------8-8-11-9-------- x2
-8-8-----------8-8-----------------

-----------------------------------
-----------------------------------
-----------------------------------
-------------13-13------------11-10
-------11-11------------11-11------ x2
-11-11------------11-11------------

-----------------------------------
-----------------------------------
-----------------------------------
---------10-10---------------------
-----8-8-----------8-8-11-9-------- x2
-8-8-----------8-8-----------------

-----------------------------------
-----------------------------------
-----------------------------------
-------------13-13------------1110
-------11-11------------11-11----10
-11-11------------11-11----------10

Intro pt. 2/Chorus
Guitar 1
-----------------------------------
-----------------------------------
-------------5/65---------5-5-6-5-
-8-8-8--8-8--x-x-x--8-8--8-x-x-x-x-
-8-8-8--8-8--3/43--8-8--8-3-3-4-3-
-8-8-8--8-8---------8-8--8---------


-----------------------------------
-----------------------------------
-------------5/65--------8-8-10-8-
-6-6-6--6-6--x-x-x-6-6--6-x-x-x--x-
-6-6-6--6-6--3/43-6-6--6-6-6-8--6-
-6-6-6--6-6--------6-6--6----------

-----------------------------------
-----------------------------------
-------------5/65--------8-8-10-8-
-4-4-4--4-4--x-x-x-4-4--4-x-x-x--x-
-4-4-4--4-4--3/43-4-4--4-6-6-8--6-
-4-4-4--4-4--------4-4--4----------

-----------------------------------
-----------------------------------
-13-13-13-13-13-13-14-14-14-17-17-17
-x--x--x--x--x--x--x--x--x--x--x--x
-11-11-11-11-11-11-12-12-12-15-15-15
-----------------------------------


Guitar 2
-----------------------------------
-----------------------------------
-------------12--------------------
-8-8-8--8-8--x--8-8-8--8-8--8-8-8-8
-8-8-8--8-8--9--8-8-8--8-8--8-8-8-8
-8-8-8--8-8--0--8-8-8--8-8--8-8-8-8


-----------------------------------
-----------------------------------
-----------------------------------
-6-6-6--6-6-xxxx----6-6-6--6-xxxx--
-6-6-6--6-6-xxxx----6-6-6--6-xxxx--
-6-6-6--6-6-xxxx----6-6-6--6-xxxx--


-----------------------------------
-----------------------------------
----------7-------------8----------
-4-4-4--4-x----4-4-4--4-x----------
-4-4-4--4-4----4-4-4--4-5----------
-4-4-4--4-0----4-4-4--4-0----------


-----------------------------------
-----------------------------------
-6-6-6--6-6-6--3-3-3--3-3-3--------
-6-6-6--6-6-6--3-3-3--3-3-3--------
-4-4-4--4-4-4--3-3-3--3-3-3--------
-----------------------------------

Intro pt. 1 (x1)


Verse 1
Guitar 1: Intro pt. 1
Guitar 2 (palm mute)
-----------------------------------
-----------------------------------
-----------------------------------
-8-8-----6-6-----11-11----10-------
-8-8-x4--6-6-x4--11-11-x4-10-x24---
-8-8-----6-6-----11-11----10-------


---------------------------------------------
---------------------------------------------
---------------------------------------------
--------------------------------------------- x4 
-8-8-8-8-9-9-8-8-8-8-11-11-11-11-9-9-8-8-----
---------------------------------------------
(slighten palm mute during 4th time through)

---------------------------------------------
---------------------------------------------
-11-11-11-11-11--10-10-10-10-10--------------
-x--x--x--x--x---x--x--x--x--x---------------
-9--9--9--9--9---8--8--8--8--8---------------
---------------------------------------------

Intro pt. 2/Chorus

Verse

Intro pt. 2/Chorus 


Bridge
Guitar1
---------------------------------------------
---------------------------------------------
-------------------5----------5--6-----------
-8-8-8----6-6-6----x-4-4-4----x--6-3--------- x2
-8-8-8-x4-6-6-6-x3-3-4-4-4-x3-3--4-3---------
-8-8-8----6-6-6------4-4-4---------3---------

Guitar 2
---------------------------------------------
---------------------------------------------
-6-5-3----8-6-5----11-10-8----8-10-5-x-------
-x-x-x-x4-x-x-x-x4-x--x--x-x4-x-x--x-x-------
-4-3-1----6-4-3----9--8--6----6-8--3-x-------
---------------------------------------------


---------------------------------------------
---------------------------------------------
-6-5-3----8-6-5----11-10-8----8-10-8-10-12-11
-x-x-x-x4-x-x-x-x4-x--x--x-x4-x-x--x-x--x----
-4-3-1----6-4-3----9--8--6----6-8--6-8--10-9-
---------------------------------------------

Intro pt. 2/Chorus

Bridge

Outro
Guitar 1
---------------------------------------------
---------------------------------------------
-3-3--3--3/5-5--5--5/6-6--6--6/8-8--8--8-3~--
-x-x--x--x-x-x--x--x-x-x--x--x-x-x--x--x-x---
-1-1--1--1/3-3--3--3/4-4--4--4/6-6--6--6-1~--
---------------------------------------------

Guitar 2
---------------------------------------------
---------------------------------------------
---------------------------------------------
-8-8--8--8-8-8--8--8-8-8--8--8-8-8--8--8-8~--
-8-8--8--8-8-8--8--8-8-8--8--8-8-8--8--8-8~--
-8-8--8--8-8-8--8--8-8-8--8--8-8-8--8--8-8~--

LYRICS ---
speak to me
tell me something so typical
a lullaby or something miserable
that will keep me up at night

cross out my eyes
i know you planned it
you know i love you
and i can't stand it
we just lost control
(we just lost control)

lie to me
give me something worth living for
tell me a reason worth fighting for
give me anything, anything to keep me breathing
lie to me
give me something worth living for
tell me a reason worth fighting for
give me anything, anything to keep me breathing

go lie to me
tell me stories so beautiful
an epic of something so terrible
that it makes me weep

cross out these days
on the calendar
it hurts me so much
and im not quite sure
i care anymore
(i care anymore)

lie to me
give me something worth living for
tell me a reason worth fighting for
give me anything, anything to keep me breathing
lie to me
give me something worth living for
tell me a reason worth dying for
give me anything, anything to keep me breathing
(x2)

anything to keep me breathing
Show more
sponsored links
sponsored links