• Song:

    Check The Ring Yo

  • Artist:

    Mc Chris

G|----------------------------------|
D|-----7----------------------------|
A|-------10-9/7-----9-7-5/3---2-3-5-|
E|-7-7----------7-7---------3-------|

G|-------------------------|
D|-----------2-3-5---3-5-7-|
A|---3-5-7-3-------5-------|
E|-5-----------------------|

I think this is right, feel free to make corrections.
This is my first tab too :D
Show more