Here are some parts from new Megadeth's song-Deadly nightshade
intro/chorus
alternate these parts between each other
E-----------------------|
B-----------------------|
G---2b3-----------------|
D-------2-3-2-----------|
A-2---------------5-4-3-|
E-0------------0--3-2-1-|
              p.m
E-----------------------|
B-----------------------|
G---2b3-----------------|
D-------2-3-2-----------|
A-2---------------2-1-0-|
E-0------------0--3-2-1-|

Verse
E--------------------------------|
B--------------------------------|
G--------------------------------|
D--------------------------------|
A--------------------------4---4-|
E--0-0-023-0-0-023-0-0-023-2-0-2-|
p.m. . . . . . . . . . . .
E--------------------------------|
B--------------------------------|
G--------------------------------|
D--------------------------7---6-|
A--------------------------5---4-|
E--0-0-023-0-0-023-0-0-023---0---|


E--------------------------------|
B--------------------------------|
G--------------------------------|
D--------------------------------|
A--------------------------3---3-|
E--0-0-023-0-0-023-0-0-023-1-0-1-|
p.m. . . . . . . . . . . .


E--------------------------------|
B--------------------------------|
G--------------------------------|
D----------------------------3---|
A----------------------------1-3-|
E--0-0-023-0-0-023-0-0-023-----1-|
p.m. . . . . . . . . . . .
Then back to the intro/chorus

Sorry,no solo
Show more