• Song:

    So Long Self

  • Artist:

    Mercyme

  • Album:

    So Long Self

MercyMe - So Long Self Bass Tab/Chords

A pretty easy song, but there are lots of bass fills in the song itself that I've 
tried to tab here.
Listen to find the rhythm. I've also included the chords to aid in fills.

Intro (Ab-Bb-Gb)
G|-------------------------------------------------------------------------|
D|-------------------------------------------------------------------------|
A|-------------------------------------------------------------------------|
E|-4-4-4-4-4-4-4-4-6-6-6-464-2-2-2-020-4-4-4-4-4-4-4-4-6-6-6-464-2-2-2-020-|

Verse (Ab-F-Gb-Bb)
G|--------------------------------------------------------------------|
D|--------------------------------------------------------------------|
A|--------------------------------------------------------------------|
E|-4-4-4-4-1-1-1-1-2-2-2-2-6-6-6-6-4-4-4-4-1-1-1-1-2-2-2-2-6-6-4646/4-|

G|----------------------------------------------------------------|
D|----------------------------------------------------------------|
A|----------------------------------------------------------------|
E|-4-4-4-4-1-1-1-1-2-2-2-2-6-6-6-6-4-4-4-4-4-4-4-4-6-6-6-46/2-2-2-2|

Chorus (Ab-C-Gb-Db)
G|-----------------------------------------------------------------|
D|-----------------------------------------------------------------|
A|---------------3---------4-4-4-4---------------3---------4-4-4-4-|
E|-4-4-4-4-4-4-4---2-2-2-2---------4-4-4-4-4-4-4---2-2-2-2---------|

G|-----------------------------------------------------------------|
D|-----------------------------------------------------------------|
A|---------------3---------4-4-4-4-------------------------4-4-4-4-|
E|-4-4-4-4-4-4-4---2-2-2-2---------4-4-4-4-4-4-4-4-2-2-2-2---------|

Interlude (Ab-Bb-Gb)
G|-------------------------------------|
D|-------------------------------------|
A|-------------------------------------|
E|-4-4-4-4-4-4-4-4-6-6-6-464-2-2-2-020-|

Verse (Ab-F-Gb-Bb)
G|--------------------------------------------------------------------|
D|--------------------------------------------------------------------|
A|--------------------------------------------------------------------|
E|-4-4-4-4-1-1-1-1-2-2-2-2-6-6-6-6-4-4-4-4-1-1-1-1-2-2-2-2-6-6-4646/4-|

G|----------------------------------------------------------------|
D|----------------------------------------------------------------|
A|----------------------------------------------------------------|
E|-4-4-4-4-1-1-1-1-2-2-2-2-6-6-6-6-4-4-4-4-4-4-4-4-6-6-6-46/2-2-2-2|

Chorus (Ab-C-Gb-Db)
G|-----------------------------------------------------------------|
D|-----------------------------------------------------------------|
A|---------------3---------4-4-4-4---------------3---------4-4-4-4-|
E|-4-4-4-4-4-4-4---2-2-2-2---------4-4-4-4-4-4-4---2-2-2-2---------|

G|-----------------------------------------------------------------|
D|-----------------------------------------------------------------|
A|---------------3---------4-4-4-4-------------------------4-4-4-4-|
E|-4-4-4-4-4-4-4---2-2-2-2---------4-4-4-4-4-4-4-4-2-2-2-2---------|

Bridge (No bass until the very end of the bridge)
G|---------------------------------|
D|---------------------------------|
A|---------------------------------|
E|-4-4-4-4-6-6-6-6-2-2-2-2-6-6-6-6-|

Guitar solo
G|-----------------------------------------------------------------|
D|-----------------------------------------------------------------|
A|---------------3---------4-4-4-4---------------3---------4-4-4-4-|
E|-4-4-4-4-4-4-4---2-2-2-2---------4-4-4-4-4-4-4---2-2-2-2---------|


Chorus (Ab-C-Gb-Db)
G|-----------------------------------------------------------------|
D|-----------------------------------------------------------------|
A|---------------3---------4-4-4-4---------------3---------4-4-4-4-|
E|-4-4-4-4-4-4-4---2-2-2-2---------4-4-4-4-4-4-4---2-2-2-2---------|

G|-----------------------------------------------------------------|
D|-----------------------------------------------------------------|
A|---------------3---------4-4-4-4-------------------------4-4-4-4-|
E|-4-4-4-4-4-4-4---2-2-2-2---------4-4-4-4-4-4-4-4-2-2-2-2---------|

Outro (Ab-Gb-Db)
G|-----------------------------------------------------------------|
D|-----------------------------------------------------------------|
A|-------------------------4-4-4-4-------------------------4-4-4-4-|
E|-4-4-4-4-4-4-4-4-2-2-2-2---------4-4-4-4-4-4-4-4-2-2-2-2---------|

G|-----------------------------------------------------------------|
D|-----------------------------------------------------------------|
A|-------------------------4-4-4-4-------------------------4-4-4-4-|
E|-4-4-4-4-4-4-4-4-2-2-2-2---------4-4-4-4-4-4-4-4-2-2-2-2---------|
Show more