-------------------------------------------------------------------------------
			     Tell Me What To Do - Metro Station
-------------------------------------------------------------------------------
Tabbed by: Cory
Email: aggman101@yahoo.com

Tuning: Standard

Intro
Right Ear Phone
e|-----8-----8-----8-----8---8---------------------------------|
B|-6-6---6-6---6-6---6-6---6-----------------------------------|
G|-------------------------------------------------------------|
D|-------------------------------------------------------------|
A|-------------------------------------------------------------|
E|-------------------------------------------------------------|

Left Ear Phone
e|-------------------------------------------------------------|
B|-------------------------------------------------------------|
G|-------------------------------------------------------------|
D|-10-10\7---7/12----12/14----14\10~---------------------------|
A|-8-------5------10-------12----------------------------------|
E|-------------------------------------------------------------|

Verse
The bass line plays but you can hear this part sometimes
Right Ear Phone
e|---8---8---6---6---6-5---------------------------------------|
B|-6---6---6---6---6-------------------------------------------|
G|-------------------------------------------------------------|
D|-------------------------------------------------------------|
A|-------------------------------------------------------------|
E|-------------------------------------------------------------|

Left Ear Phone
e|-------------------------------------------------------------|
B|-------------------------------------------------------------|
G|-------------------------------------------------------------|
D|---------------------------(None)----------------------------|
A|-------------------------------------------------------------|
E|-------------------------------------------------------------|

Chorus
Right Ear Phone
e|-----8-----8-----8-----8---8---------------------------------|
B|-6-6---6-6---6-6---6-6---6-----------------------------------|
G|-------------------------------------------------------------|
D|-------------------------------------------------------------|
A|-------------------------------------------------------------|
E|-------------------------------------------------------------|

Left Ear Phone
e|-------------------------------------------------------------|
B|-------------------------------------------------------------|
G|-------------------------------------------------------------|
D|-10-10\7---7/12----12/14----14\10~---------------------------|
A|-8-------5------10-------12----------------------------------|
E|-------------------------------------------------------------|

Bridge Part
Right Ear Phone
e|-------------------------------------------------------------|
B|-------------------------------------------------------------|
G|-------------------------------------------------------------|
D|-----15-15-----15-15-----------------------------------------|
A|-8-8-------8-8-----------------------------------------------|
E|-------------------------------------------------------------|

Left Ear Phone
e|-------------------------------------------------------------|
B|-------------------------------------------------------------|
G|-------------------------------------------------------------|
D|-10-10-10-10-10---10---10-----10---10---10---10--------------|
A|-8--8--8--8--8--8----8----8-8----8----8----8-----------------|
E|-------------------------------------------------------------|

Order
Intro
Verse
Chorus
Verse
Chorus 
Bridge
Chorus

| /  slide up
| \  slide down
| h  hammer-on
| p  pull-off
| ~  vibrato
| +  harmonic
| x  Mute note
===============================================================================
Show more