sponsored links
Mia: Tanz Der Molek├╝le
Inscribed by Jan Hoffmann
 
Intro:    Riff 1  2x  ohne Bass
          Riff 1  6x
Verse 1:  Riff 2  4x
Verse 2:  Riff 2  2x
Chorus:   Riff 1  2x
Verse 3:  Riff 3  2x
Verse 4:  Riff 2  2x
Chorus:   Riff 1  4x
Solo 1:   Riff 1  2x  ohne Bass
Fill in:  Riff 4
Solo 2:   Riff 1  2x
Chorus:   Riff 1  10x
Outro:    Riff 1  6x
 
Riff 1:
G|-----------------|-----------------|-----------------|-----------------|
D|-----------------|-----------------|-----------------|-----------------|
A|-7-7-7-7-7-7-7-7-|-----------------|-----------------|-5-5-5-5-5-5-5-5-|
E|-----------------|-8-8-8-8-8-8-8-8-|-5-5-5-5-5-5-5-5-|-----------------|
B|-----------------|-----------------|-----------------|-----------------|
 
Riff 2:
G|-----------------|-----------------|-----------------|-----------------|
D|-----------------|-----------------|-----------------|-----------------|
A|-----------------|-----------------|-4-4-4-4-4-4-4-4-|-----------------|
E|-4-4-4-4-4-4-4-4-|-----------------|-----------------|-----------------|
B|-----------------|-5-5-5-5-5-5-5-5-|-----------------|-7-7-7-7-7-7-7-7-|
 
Riff 3:
G|-----------------|-----------------|-----------------|-----------------|
D|-----------------|-----------------|-----------------|-----------------|
A|-5-5-5-5-5-5-5-5-|-----------------|-----------------|-----------------|
E|-----------------|-7-7-7-7-7-7-7-7-|-----------------|-8-8-8-8-8-8-8-8-|
B|-----------------|-----------------|-8-8-8-8-8-8-8-8-|-----------------|
 
Riff 4:
G|-----------------|-----------------|
D|-----------------|-----------------|
A|-7-7-7-7-7-7-7-7-|-7-7-7-7-7-7-7-7-|
E|-----------------|-----------------|
B|-----------------|-----------------|
Show more
sponsored links
sponsored links