Band:Midtown
Song:Become what you hate
Album:living well is the best revenge

Tune all strings down ? step:Eb,Ab,Db,Gb

Intro(wait 1 measure till it kicks in and gets loud)

                  X2
:-----------------|      
:-----------------|
:---22/4----------|
:-0------44-5-7--|

then

:------------------------------
:------------------------------
:----22/4-x---------7-6-4------
:-0----------4x4x4-------------

verse x2

:-----------------------------------------------
:-----------------------------------------------
:---------222222-----------------4444444-222222-
:-000000----------444444-555555-----------------

pre-chorus

:-----------------------------
:-----------------------------
:-----------------------------
:-5-5-55-552-2-22-2/5-5-5555-

chorus
:---------------------------------
:---------------------------------
:--------222222-------------------
:-000000---------444444-555555----

:--------------------------------
:--------------------------------
:--------222222------------------
:-000000---------444444-555555?7

then:
:----------------     :-----------------
:----------------     :-----------------
:----22/4--------YEAH :----22/4- -------
:-0-------44-5---     :-0-------44-5-7/-

2ND VERSE

:--------------------------------------------
:--------------------------------------------
:---------222222----------------4444444-2222-
:-000000---------4444445555555---------------



CONTINUED(ABOUT YOURE DECEPTIVE SIDE?????)

:--------------------------------------------------
:--------------------------------------------------
:--------222222-------------------44444444-2222222-
:-000000--------4X4X4X45X5X5X5---------------------

PRE CHORUS

 CHORUS(NORMAL THEN PLAY SAME BUT SLOW)

BRIDGE:							X2
:--------------------------------------------------
:--------------------------------------------------
:--4-4-4444-----------4-4--4-4-4-4-----------------
:------------0000000------------------00000-0-2?4-5

THEN
:---------------------------------------------------------------
:---------------------------------------------------------------
:---------------------------------------------------------------
:-222222-444444-555555-7(THEN WAIT FOR THE GUITAR FEEDBACK PART)
 
CHORUS(SLOW)
 THEN INTRO WITH A BIT OF CHANGE IN RHYTHM)

 AND That?s IT. PLEASE RATE AND CORRECT IF THERES ANYTHING OFF IN IT

TAB BY LIAM.
Show more