this chorus might be wrong but the rest is good
Intro:        X3
G--------------|---------------------
D--------------|---------------------
A-----3----3/--|-----3----------654--
E-066--3-5-----|-066--3-33333333-----

Verse:
G--------------------------------------------------------------
D--------------------------------------------------------------
A------------------33333333--------------------------33333333--
E-33333333-66666666--------55555555-33333333-66666666----------

Pre Chorus:
G---------------------------
D---------------------------
A---------------------------
E-33333333-666666-0h3h5p3---

Chorus:
G---------------------------------
D---------------------------------
A-------2222---------2222---------
E-000000----3333-4444----4444-35--

Intro
Verse
Pre Chorus
Chorus

Bridge:                              X2
G-------------------------------------|-----------------------
D-------------------------------------|-----------------------
A-3333----3333------------------------|-----------------------
E-----0000----0000---------3h4p3-444--|-0000-3333-5555-6666---

Chorus
Intro

Outro:       X5
G-------------|---------------
D-------------|---------------
A-----3----3/-|-----3---33----
E-066---35----|-066--35-------
Show more