PM - Palm Mute 
^ - Bend 
X - Mute

Intro: Played with no distorion. 
e|--------------------------------------------------------------------- 
B|-------4-5----4-5------5---------4-5----4-5------5------------------- 
G|--5-5------5------5------5--5-5------5------5------5---5-5-5-5-5-5--- 
D|--5-5-----------------------5-5------------------------5-5-5-5-5-5--- 
A|--3-3-----------------------3-3------------------------3-3-3-3-3-3--- 
E|--------------------------------------------------------------------- 

Intro Continued: 
Played with distorion. PM____________________________________________ 
e|-----------------------|--------------------------------------------- 
B|-----------------------|--------------------------------------------- 
G|-----------------------|----6-----6-----6-----6-----8^-----6...------ 
D|--5--5--5--5-----------|-6-6---6-6---6-6---6-6---6-6---6-6....------- 
A|--5--5--5--5-----------|--------------------------------------------- 
E|--3--3--3--3...--------|--------------------------------------------- 

Intro Continued: 
-Guitar 1. 
PM_______________________ -Guitar 2. 
e|-----------------------|---------------------------------------------- 
B|-----------------------|--8-6------8-6-5------8-6-5------------------- 
G|------6-----6-----6...-|----------------------------5----------------- 
D|--6-6---6-6---6-6--...-|---------------------------------------------- 
A|-----------------------|---------------------------------------------- 
E|-----------------------|---------------------------------------------- 

Intro Continued: Guitar 1 
e|----------------------------------------------------------- 
B|-8-8-8-8-8-6-6-6-6-6-5-5-5-5--8-8-8-8-8-6-6-6-6-6-5-5-5-5-- 
G|----------------------------------------------------------- 
D|----------------------------------------------------------- 
A|----------------------------------------------------------- 
E|----------------------------------------------------------- 

e|----------------------------------------------------------- 
B|-8-8-8-8-8-6-6-6-6-6-5-5-5-5----8-6-5-(2x)----------------- 
G|-----------------------------5----------------------------- 
D|----------------------------------------------------------- 
A|----------------------------------------------------------- 
E|----------------------------------------------------------- 

-Guitar 2 
e|------------------------------------------| 
B|------------------------------------------| 
G|-5-5-5-5-5-5-5-5-5-5-5-5------------------| 
D|-5-5-5-5-5-5-5-5-5-5-5-5--5---------------| 
A|-3-3-3-3-3-3-3-3-3-3-3-3--5---------------| 
E|--------------------------3.....----------| 

Verse: 
PM___________ PM___________ PM___________ PM___________ 
e|---------------------------------------------------------------------------| 
B|---------------------------------------------------------------------------| 
G|-5---5-5-5-5-5-5-------------------5---5-5-5-5-5-5-------------------------| 
D|-5---5-5-5-5-5-5--5---5-5-5-5-5-5--5---5-5-5-5-5-5--5---5-5-5-5-5-5--------| 
A|-3---3-3-3-3-3-3--5---5-5-5-5-5-5--3---3-3-3-3-3-3--5---5-5-5-5-5-5--------| 
E|------------------3---3-3-3-3-3-3-------------------3---3-3-3-3-3-3--------| 

Chorus: 
e|--------------------------------------------------------| 
B|--------------------------------------------------------| 
G|--5-5-5-5-5-5-5------------------5--5-5-5-5-5-5---------| 
D|--5-5-5-5-5-5-5--5--5-5-5-5-5-5--5--5-5-5-5-5-5---------| 
A|--3-3-3-3-3-3-3--5--5-5-5-5-5-5--3--3-3-3-3-3-3.....----| 
E|-----------------3--3-3-3-3-3-3-------------------------| 

Bridge: 
e|------------------------------------------------------------| 
B|------------------------------------------------------------| 
G|--X-X-X-5----------------------X-X-X-5----------------------| 
D|--X-X-X-5-(4x)--X-X-X-5--------X-X-X-5-(4x)--X-X-X-5--------| 
A|--X-X-X-3-------X-X-X-5-(4x)---X-X-X-3-------X-X-X-5-(4x)---| 
E|----------------X-X-X-3----------------------X-X-X-3--------| 

"...Feeling All Alone" 
PM__________________________________________ 
e|---------------------------------------------------| 
B|---------------------------------------------------| 
G|---------------------------------------------------| 
D|--5-5-5-5-5-5-5-5-5-5-7-7-7-7-7-7-9-9-9-9-9--------| 
A|--5-5-5-5-5-5-5-5-5-5-7-7-7-7-7-7-9-9-9-9-9--------| 
E|--3-3-3-3-3-3-3-3-3-3-5-5-5-5-5-5-7-7-7-7-7--------| 

"How Can You say that im supposed...." 
e|--------------------------------------| 
B|--------------------------------------| 
G|--------------------------------------| 
D|--9-9-9-9-----------------------------| 
A|--9-9-9-9-----------------------------| 
E|--7-7-7-7.....------------------------|
Show more