Midtown - "Find Comfort In Yourself"
    Living Well Is the Best Revenge  - Track 11
      Atticus: Dragging the Lake  - Track 8
Standard tuning (E,A,D,G)
  Tabbed by ~Aj


Intro	x2					2nd time
G-|---------------------------------------------|------------
D-|---------------------------------------------|------------
A-|--333333-33-666666-66------------------------|------------
E-|------------------------444444-44--33333333--|--33333333--


Verse 1	x2
G-|---------------------------------------------
D-|---------------------------------------------
A-|--3-3333333-6-6666666------------------------
E-|------------------------4-4444444-3-3333333--


Chorus	x1
G-|-----------------------------------------
D-|-----------------------------------------
A-|------------66666666---------------------
E-|--44444444-----------444444444-33333333--

G-|------------------------------------------
D-|------------------------------------------
A-|------------66666666----------------------
E-|--44444444-----------11111111-4444-6-6-6--


Pre-Verse	x2
G-|-------------------------------------------
D-|-------------------------------------------
A-|--3333-33--66666-66------------------------
E-|-----------------------66666-66--33--(66)--


Verse 2	X1
G-|---------------------------------------------
D-|---------------------------------------------
A-|--3~--------6-6666666------------------------
E-|------------------------4-4444444-3-3333333--

G-|---------------------------------------------
D-|---------------------------------------------
A-|--3-3333333-6-6666666------------------------
E-|------------------------4-4444444-3-3333333--


Chorus	x1
G-|-----------------------------------------
D-|-----------------------------------------
A-|------------66666666---------------------
E-|--44444444-----------444444444-33333333--

G-|------------------------------------------
D-|------------------------------------------
A-|------------66666666----------------------
E-|--44444444-----------11111111-4444-6-6-6--


Bridge
G-|----------------------------------
D-|----------------------------------
A-|--3333---6666---------------------     x2
E-|-----------------6666----33-(66)--

G-|-------------------------------------------
D-|-------------------------------------------
A-|--3333-33--66666-66------------------------     x2
E-|-----------------------66666-66--33--(66)--


Outro
G-|-----------------------------------------
D-|-----------------------------------------
A-|------------66666666---------------------     x3
E-|--44444444-----------444444444-33333333--

G-|------------------------------------------|-------
D-|------------------------------------------|-------
A-|------------66666666----------------------|--333--
E-|--44444444-----------11111111-4444-6-6-6--|-------



This isn't 100% correct. I'm sure you can get the rythm and variations just by listening to the song.
Feel free to email me: One_Final1@yahoo.com
Show more