this is only the intro. its really easy to play and should not be played with distortion. Good Luck!

e-1--1--3--1-----1-------3--1-----------------1--3--1-------------------------
b-------------3----------------3--1--3-----------------4--3-------------------
g-------------------3--3----------------3--------------------3----------------
d-----------------------------------------------------------------------------
a-----------------------------------------------------------------------------
e-----------------------------------------------------------------------------

e-1--1--3--1-----3--------3--1-----3--1--1-----1--3--1------------------------
b-------------3-----------------3-----------------------4--3--3--4--3--1------
g-------------------3--3--------------------------------------------------3---
d-----------------------------------------------------------------------------
a-----------------------------------------------------------------------------
e-----------------------------------------------------------------------------
Show more