here is get it together for those of you who understand chords here it it; if not too bad tell mommy to translate

intro:
a#5
f5
g5
d#5

the next is either the rythm guitar or the little solo:
a#5
f5
g5
d5
d#5

OR
1st time
e------------------------------------------|
b-6-6-8-6----------8-6---------6-8-6-------|
g---------7------------7-5-7---------8-7---|
d-----------8--8-8-----------8-----------8-|
a------------------------------------------|
e------------------------------------------|

2nd time
e---------------------------------------------------|
b-6-6-8-6---8-----8-6---8-6-6---6-8-6-----6-8-6-----|
g---------7-----------7---------------8-7-------8-7-|
d-------------8-8-----------------------------------|
a---------------------------------------------------|
e---------------------------------------------------|

verses
a#5
d#5
g5
d#5
a#5
d#5
g5
f5
d#5

pre chorus
g5
d#5 i think 4 times
on fourth end with f5

chorus
a#5
f5
g5
d5
d#5
and when they sing: "Go. Try. Try to make yourself right
Go. Try. To make this right and move on with your life" do the same but with different strumming patterns.

then in the part where they slow the beat and sing: "baby we'll see this thriugh if you get it together it's...

e---------------------------------------------------|
b-------------------------------3-------------------|
g-----3-------3-------3---3-----3-------------------|
d---3---3---3---3---3---3---3---1-------------------|
a-1-------------------------------------------------|
e---------1-------3---------------------------------|

then its "go try try..."
Show more