Band:Midtown
Song:In the songs
CD:living well is the best revenge 
Tab By:Tad
normal tuning

Intro/verse 1 & 2
G:--------------------------------------|
D:--------------------------------------|
A:-------------------44444444-55555555--|
E:-55555555-77777777--------------------|

Pre-Chorus
G:--------------------------------------------------|
D:--------------------------------------------------|
A:--------44--55-55-5--44-44-------44-44-4444-5555--|
E:-55--77--------------------77-77------------------|

Chorus
G:-----------------------------------------------------|
D:-----------------------------------------------------|
A:-5(x16)--7(x16)--4(x16)---------77-55-44-55----------|
E:-------------------------7(x16)--------------5(x16)--|

Bridge
G:-------------------------------------------------|
D:-------------------------------------------------|
A:---------5~--------------------5555555555555555--|
E:-5~--7~------55555555-77777777-------------------|

thats it. if theres something wrong then FIX IT!!!!  :)
Show more