Intro;

g-------------------------------------------------------
d--7(x32)-------7(x6)-----------------------------------
a---------7(x8)-------5(x6)--8(x6)--5(x6)--8(x6)--7(x4)-
e-------------------------------------------------------

Verse;

g-------------------------------------------------------
d-7(x6)-------5(x6)-------------------------------------  x2
a-------7(x6)-------8(x6)-7(x6)-------------------------
e-------------------------------------------------------

At End Of Verse;

g-------------------------
d-------------------------
a-8(x8)-7(x6)-------------
e-------------------------

Chorus;

g------------------------------------------------------
d-7(x6)-------5(x6)------------------------------------  x3
a-------7(x6)-------5(x6)-8(x6)-7(x6)------------------
e------------------------------------------------------

At End Of Chorus;

g-------------------------
d-------------------------
a-8(x4)-7(x4)-8-7---------
e-------------------------

Verse 2; 

g-----------------------------------------------------
d-7(x3)-------7(x3)-------7(x3)-------7(x3)-----------
a-------7(x3)-------7(x3)-------7(x3)-------5(x3)-8(x6)
e-----------------------------------------------------

Then Back Into Verse Then;

g-----------------------
d-----------------------
a-8(x8)-7(x6)-----------
e-----------------------

Then Verse x2

Then;

g----------------------
d-7(x16)-------5(x6)---
a--------7(x6)-------5(x6)
e----------------------

Then Pause, Then Back Into The Above x3 

After You've Played It Another x3 Then Into This

g---------------------
d---------------------
a-8(x1)-7(x1)---------
e---------------------

Then Back Into Verse 1 x1 

And That's It.....

Any Questions Email Me At Livingwellisthebestrevenge_1@hotmail.com

Matt
Show more