#------------------------------------------------------------#
#----------------  File created with Instab  ----------------#
#-- http://www.geocities.com/glooeater/files/instab-10.zip --#
#------------------------------------------------------------#

Author/Artist: Midtown
Title: Just Rock and Roll
Album: Save the World, Lose the Girl
Transcribed by: glooeater
Email: glooeater@yahoo.com

Tuning: Standard E (EADGBe)

==============================================================

 INTRO
|--------------------------|-------|
|--------------------------|-------|
|------5----7--------------|-------|
|-3----5----7----7----8----|-10----|
|-3----3----5----7----8----|-10----|
|-1--------------5----6----|-8-----|
 Figure out the rythm yourself.  Its easy.

 INTRO SOLO
|--------------------------------------------------------|
|-10-8--------------10-8------10--10-10-8------10-8------|
|------9-10--------------9-10-------------9-10------9-10-|
|-----------10--10---------------------------------------|
|--------------------------------------------------------|
|--------------------------------------------------------|

 INTRO SOLO CONT.
|-----------------------------------------------------|
|-8-10-8-------------8-10-8-----------------8---------|
|--------10-9-10------------10-9-10----9-10---10-9-10-|
|----------------10-----------------10----------------|
|-----------------------------------------------------|
|-----------------------------------------------------|

 INTRO SOLO CONT.
|--------------------------------------------------8----|
|----8-10-8-----13-11-11-10-8---------------8------10---|
|-10-------10-9---------------9-10---9-10-9---10-9-10---|
|-------------------------------------------------------|
|-------------------------------------------------------|
|-------------------------------------------------------|

==============================================================

 VERSE
|--------------------------------|
|--------------------------------|
|------5----7--------------------|
|-3----5----7----7----8----10----|
|-3----3----5----7----8----10----|
|-1--------------5----6----8-----|
 Figure out the rhythm again.

==============================================================

 CHORUS RHYTHM PART
|---------|
|---------|
|---5---3-|
|-3-5-5-3-|
|-3-3-5-1-|
|-1---3---|
 Figure out the rhythm again.

 CHORUS LEAD PART
|-----------------------------------------------------|
|---6-----6-------5-----5-------3-----3-----6-----6---|
|-----5-----5-------5-----5-------3-----3-----7-----7-|
|-7-----7-------5-----5-------5-----5-----8-----8-----|
|-----------------------------------------------------|
|-----------------------------------------------------|

=============================================================

                    PLAY VERSE

=============================================================

 BRIDGE
|-----------------|
|-----------------|
|--7--------------|
|--7---8--7--8--5-|
|--5---8--7--8--5-|
|------6--5--6--3-|
 Figure out the rythm again.

=============================================================

 OUTRO
|--------------------------|-------|
|--------------------------|-------|
|------5----7--------------|-------|
|-3----5----7----7----8----|-10----|
|-3----3----5----7----8----|-10----|
|-1--------------5----6----|-8-----|
 Figure out the rhythm again.

=============================================================
LYRICS

You can never tell me I shouldn't walk away. It's foolish to assume that I'll be coming back another day. You were never right and I was never wrong. Does truth lie in sincerity of another sullen song? Cause you were right then I should have been the one to release it, it's coming back to tease me but I was just born and you're pride was too strong. Can you change it? Are you willing to face it? You can tell your story and coat it any way but you will never change who you trying to play. Now your friends are falling out, they know you just don't care they know you never did. Because they say always the first one is never as good as the next. Hey, it's just rock and roll even though you might think you lost it all. Cause the times they are a changin and who can predict what's next? Hey, you lost control even though you might have thought you had it all and hey, it's just rock and roll and I'll never change I love it just the same. I'll never change because I love it just the same. God I wish I could hate you the rest of my life. God I wish I could hate you for the rest of my nothing would make me happier.
Show more