Intro: play (3x)               play (1x)
e|---------------------------|-----------------------------------|
B|---------------------------|-----------------------------------|
G|-------5-5--7-7------------|------5-5--7-7---------------------|
D|--3-3--5-5--7-7--7-7--8-8--|-3-3--5-5--7-7--7-7--8-8--10-10-10-|
A|--3-3--3-3--5-5--7-7--8-8--|-3-3--3-3--5-5--7-7--8-8--10-10-10-|
E|--1-1------------5-5--6-6--|-1-1------------5-5--6-6---8--8--8-|

Intro: play (2x)
e|--------------------------------------------------|
B|--------------------------------------------------|
G|-14-12--------14-12-----14--14-12---12-14-12--12--|
D|------14-15--------14-15---------15---------15----|
A|-----------14-------------------------------------|
E|--------------------------------------------------|

  play (1x)   (h=hammer on)
e|-----------------------------------------------------------------------------------------------------------|
B|-----------------------------------------------------------------------------------------------------------|
G|---12-14-12----------12-14-12-----------------12---------12-14-12-----17-15-15-15-14-12---------12---------|
D|-15--------15-14-15-----------15-14-15---14-15--15-14--15--------15-14-----------------15--14-15--15-14-15-|
A|-------------------15-----------------15-------------------------------------------------------------------|
E|-----------------------------------------------------------------------------------------------------------|

Verse:(Palm Muted)
e|-----------------------------------|
B|-----------------------------------|
G|------5-5--7-7---------------------|
D|-3-3--5-5--7-7--7-7--8-8--10-10-10-|
A|-3-3--3-3--5-5--7-7--8-8--10-10-10-|
E|-1-1------------5-5--6-6---8--8--8-|

Chorus:(Guitar 2)2x
e|-----------------------------------|
B|-----------------------------------|
G|--------5-5-5---------3-3-3--------|
D|-3-3-3--5-5-5--5-5-5--3-3-3--------|
A|-3-3-3--3-3-3--5-5-5--1-1-1--------|
E|-1-1-1---------3-3-3---------------|

Chorus:(Guitar 1)2x
e-----------------------------------------------------------------|
B-----6-------6-------5------5-------3-------3-------6-------6----|
G---5---5---5---5---5--5---5---5---3---3---3---3---7---7---7---7--|
D-7-------7-------5------5-------5-------5-------8-------8--------|
A-----------------------------------------------------------------|
E-----------------------------------------------------------------|

Bridge 1:(Cut Time)2x
e|----------------------------------------|
B|----------------------------------------|
G|-7--------------------------------------|
D|-7(16x)-8------7-----8-----5-----8------|
A|-5------8(16x)-7(8x)-8(8x)-5(8x)-8(8x)--|
E|--------6------5-----6-----3-----6------|
 
Bridge 2:1x  
e|-------------------|
B|-------------------|
G|-7-----------------|
D|-7(8x)-8-----------|
A|-5-----8(8x)-------|
E|-------6-----------|

Bridge 3:1x(*=palm muted)   
e|---------------------------------|
B|---------------------------------|
G|---------------------------------|
D|-5-5-----7-7-----8-8-----10------|
A|-5-5(8x)-7-7(8x)-8-8(8x)-10(8x)--|
E|-3-3-----5-5-----6-6------8------|
     *       *       *      * 

Ending:
e|-----------------------------------|
B|-----------------------------------|
G|------5-5--7-7---------------------|
D|-3-3--5-5--7-7--7-7--8-8--10-10-10-|
A|-3-3--3-3--5-5--7-7--8-8--10-10-10-|
E|-1-1------------5-5--6-6---8--8--8-|

Order:
Intro-4x
Solo-1x
Verse-2x
Chorus-2x
Intro-3x
Verse-2x
Chorus-2x
Bridge1-2x
Bridge2-1x
Bridge3-1x
Intro-4x
Ending-4x
End on-
----
----
----
--3-
--3-
--1-
Show more