Intro:
Bass start at 0:18

G|---------------------------------------------------------
D|---------------------------------------------------------
A|---00000000-----22222222--------------------555555555-           X4
E|----------------------------------22222222---------------

Pre-Chorus:

G|----------------------------------------------------------
D|----------------------------------------------------------
A|------------------------------------55555555-------------               X2
E|---222222222-----00000000-------------------------------

Chorus:

G|-------------------------------------------------
D|-------------------------------------------------
A|--------0000-----7777-----4444-----5555-----
E|--------------------------------------------------

                                                                                                          
G|-----------------------------------------------
D|-----------------------------------------------
A|--------0000--------------------------5555-----
E|-------------------0000-----2222---------------

G|----------------------------------------------
D|----------------------------------------------
A|--------0000-----7777-----4444-----5555-----
E|-----------------------------------------------

G|------------------------------------------------
D|-----------------------------------------------
A|--------55555-----7777------------------------
E|-----------------------------------------------

Intro X2

Verse X4

Chorus

Bridge:

G|---------------------------------------------
D|---------------------------------------------
A|-------------0000-----2222-----5555----------
E|---2222--------------------------------------

G|--------------------------------------------------------------------------
D|---------------------------------------------------------------------------
A|-------------0000-----22222222-----55555555--------------------55555555-
E|---2222----------------------------------------------22222222--------------

------------------------------
------------------------------
---22222222-----55555555------
------------------------------

End:

G|-------------------------------
D|-------------------------------
A|--------00-----55-----22-----       X3
E|---22-------------------------

G|-------------------------------
D|-------------------------------
A|--------00-----5>--let--ring--
E|---22-------------------------


Ok that?s all I hope u enjoy it and please don?t forget to rate this tab.
Thanks.
Show more