Knew it all Along (Acoustic)
Midtown
ratter3131@aol.com email me if youve got a ?
Standerd Tuning

intro(Guitar 2)

 x 12        x2    x2
e-12-------|-9---|-10----|
b----10----|---10|----10-|x2

verse
"You can say.."(Play twice befor the lyrics)
---------------
---------------
-2---4-------7-
-2---4---4---7- corresponds with above
-0---2---4---5-
-0---0---2-----x4


"Stop Breathing..."

use above chords for this part 
just strum a different way


"When your aching.."

-----------
--------5--
-----7--7--
--4--7--7--
--4--5--5--
--2--------x2

Chorus
"I Know its not..."         
-------------------------|   |-------|
-------------------------|   |-------|
-2--9--6--7-|--2--9----7-|   |-2---7-|
-2--9--6--7-|--2--9--4-7-|x2 |-2---7-|litle part before the interlude
-0--7--4--5-|--0--7--4-5-|   |-0---5-|(where he sings "To trust is to defend")
-0-------------0-----2---|   |-0-----|
        Dont^ Play this part
        the second time around
Interlude

Guitar 1

|--------|
|-0---5--|
|-2---7--|
|-2---7--| here there is some palm muting if you listen
|-0---5--| carefully you can hear
|-0------|

Guitar 2

this is basically the patern for guitar 1 but on 
the second measure use the second chord

b--5-5-5-5-5-5-5-5-x-5-5-5-x--5-5-5---
g--5-5-5-5-5-5-5-5-x-5-5-5--x-5-5-5---

b--5-5-5-5-5-5-5-x-4-4-4-x-5-5-5---
g--5-5-5-5-5-5-5-x-5-5-5-x-5-5-5---

verse parts again don't play "When you aching" part

Ending
"Trust is to defend!"
-------------
----5--------
-2--7--4--7--
-2--7--4--7-- about 3 times listen carefully 
-0--5--2--5--
-0-----------
Second Part
"Knew it all along!"
|-----------
|-----------
|-2--7--4---
|-2--7--4---
|-0--5--2---
|-0---------
Show more