Midtown - Let Go (Solo)
Tabbed by: beeblebrox677, cookerworms@yahoo.com
7/16/03
Standard Tuning

I noticed that the tabs for Let Go on this site were correct,
except for the fact that both of them didn't have the solo part.
Any comments or suggestions are welcome:  cookerworms@yahoo.com

12/17/04
WOW i'm on a freakin roll today updating old tabs
i guess i should feel honored that the old version of the solo
was used in two other tabs on this site
but i didn't get credit
so now i'm going to go to my room
and cry
and slit my wrists
and write sad songs on my guitar and sing them

e-|-4-5-4------------|-----------4h5/7\5p4------------------|
b-|-------7-5-4------|-------5h7-----------7-5-4-5-7-5-4-5~-|
g-|-------------6-4~-|-4h6h8--------------------------------|
d-|------------------|--------------------------------------|
a-|------------------|--------------------------------------|
e-|------------------|--------------------------------------|

e-|-------4h5/7h9p7-5p4---4----------|---------------|---------------|
b-|-4h5h7---------------7---5--------|---------------|---------------|
g-|---------------------------6-4----|--------8------|----8-9-11-9-8-|
d-|-------------------------------6~-|-7-9-11---11-9-|-11------------|
a-|----------------------------------|---------------|---------------|
e-|----------------------------------|---------------|---------------|

e-|-----------------------------|
b-|------9-10-12-12b14r12-9-10~-|
g-|-9-11------------------------|
d-|-----------------------------|
a-|-----------------------------|
e-|-----------------------------|
Show more