Midtown - Let Go

Tabbed by Paul Davids (ik_ben_paul@hotmail.com)


Intro (clean)
|-----------------------------------|
|-----------------------------------|
|-----------------------------------|
|-7-7-7-7-6-6-6-6-9-9-9-9-2-2-2-2---|
|-7-7-7-7-6-6-6-6-9-9-9-9-2-2-2-2---|
|-5-5-5-5-4-4-4-4-7-7-7-7-0-0-0-0---|
pm. .     . .     . .     . .
 
chorus
|------------------------------------------------------12-14-16-12--|
|-------------------------------------------------------------------|
|-------4-4--------------------9-9-9-9-4-4-4-4----------------------|
|-2-2---4-4---4-4-4-4-7-7-7-7--9-9-9-9-4-4-4-4-4-4-4-4--------------|
|-2-2---2-2---4-4-4-4-7-7-7-7--7-7-7-7-2-2-2-2-4-4-4-4--------------|
|-0-0---------2-2-2-2-5-5-5-5------------------2-2-2-2--------------|

|---------------------------------------------------------------|
|---------------------------------------------------------------|
|-------4-4--------------------6-6-6-6-6-6-6-6-4-4-4-4-4-4-4-4--|
|-2-2---4-4---4-4-4-4-7-7-7-7--6-6-6-6-6-6-6-6-4-4-4-4-4-4-4-4--|
|-2-2---2-2---4-4-4-4-7-7-7-7--4-4-4-4-4-4-4-4-2-2-2-2-2-2-2-2--|
|-0-0---------2-2-2-2-5-5-5-5-----------------------------------|

Verse
|-----------------------------------|
|-----------------------------------|
|-----------------------------------|
|-7-7-7-7-6-6-6-6-9-9-9-9-2-2-2-2---|
|-7-7-7-7-6-6-6-6-9-9-9-9-2-2-2-2---|
|-5-5-5-5-4-4-4-4-7-7-7-7-0-0-0-0---|
pm. .     . .     . .     . .

Pre chorus:
|-----------------------------------|
|-----------------------------------|
|-----------------------------------|
|-7-7-7-7-6-6-6-6-9-9-9-9-2-2-2-2---|
|-7-7-7-7-6-6-6-6-9-9-9-9-2-2-2-2---|
|-5-5-5-5-4-4-4-4-7-7-7-7-0-0-0-0---|

Pre-Verse
|-----------------------------------|
|-----------------------------------|
|-----------------------------------|
|-7-7-7-7-6-6-6-6-9-9-9-9-2-2-2-2---|
|-7-7-7-7-6-6-6-6-9-9-9-9-2-2-2-2---|
|-5-5-5-5-4-4-4-4-7-7-7-7-0-0-0-0---|
pm. . . . . . .   . . . . . . . .
Show more