ok so the song has been tabbed well already but the solo is separate and it bugs me so i decided to put them together:

Intro (clean)
|-----------------------------------|
|-----------------------------------|
|-----------------------------------|
|-7-7-7-7-6-6-6-6-9-9-9-9-2-2-2-2---|
|-7-7-7-7-6-6-6-6-9-9-9-9-2-2-2-2---|
|-5-5-5-5-4-4-4-4-7-7-7-7-0-0-0-0---|
pm. .     . .     . .     . .
 
chorus
|------------------------------------------------------12-14-16-12--|
|-------------------------------------------------------------------|
|-------4-4--------------------9-9-9-9-4-4-4-4----------------------|
|-2-2---4-4---4-4-4-4-7-7-7-7--9-9-9-9-4-4-4-4-4-4-4-4--------------|
|-2-2---2-2---4-4-4-4-7-7-7-7--7-7-7-7-2-2-2-2-4-4-4-4--------------|
|-0-0---------2-2-2-2-5-5-5-5------------------2-2-2-2--------------|

|---------------------------------------------------------------|
|---------------------------------------------------------------|
|-------4-4--------------------6-6-6-6-6-6-6-6-4-4-4-4-4-4-4-4--|
|-2-2---4-4---4-4-4-4-7-7-7-7--6-6-6-6-6-6-6-6-4-4-4-4-4-4-4-4--|
|-2-2---2-2---4-4-4-4-7-7-7-7--4-4-4-4-4-4-4-4-2-2-2-2-2-2-2-2--|
|-0-0---------2-2-2-2-5-5-5-5-----------------------------------|

Verse
|-----------------------------------|
|-----------------------------------|
|-----------------------------------|
|-7-7-7-7-6-6-6-6-9-9-9-9-2-2-2-2---|
|-7-7-7-7-6-6-6-6-9-9-9-9-2-2-2-2---|
|-5-5-5-5-4-4-4-4-7-7-7-7-0-0-0-0---|
pm. .     . .     . .     . .

Pre chorus:
|-----------------------------------|
|-----------------------------------|
|-----------------------------------|
|-7-7-7-7-6-6-6-6-9-9-9-9-2-2-2-2---|
|-7-7-7-7-6-6-6-6-9-9-9-9-2-2-2-2---|
|-5-5-5-5-4-4-4-4-7-7-7-7-0-0-0-0---|

Pre-Verse
|-----------------------------------|
|-----------------------------------|
|-----------------------------------|
|-7-7-7-7-6-6-6-6-9-9-9-9-2-2-2-2---|
|-7-7-7-7-6-6-6-6-9-9-9-9-2-2-2-2---|
|-5-5-5-5-4-4-4-4-7-7-7-7-0-0-0-0---|

Solo
e----------------------------------------------------------------------------7h9p7-
b-9-10-9-7----------------------9h10-12/10-9h10p9p7---------------------9h10-------
g----------9-8-6------------8h9---------------------9p8h9-11p9p8h9-8h9h11----------
d----------------9~-9h11h13--------------------------------------------------------
a----------------------------------------------------------------------------------
e----------------------------------------------------------------------------------

e----------------------------------------------------------5-7/9p7-------
b-10p9p7-9---------------------------------------------7-9---------9-10~-
g----------9---------------------------------------6-9-------------------
d--------------9----6h8h9-11p9p7-9h11h13-14p13p11------------------------
a----------------11------------------------------------------------------
e------------------------------------------------------------------------
Show more