Midtown - “Let Go”
tabbed by:  tenfoldbassist526

This song isn’t a very difficult song to play, or tab.  If there are any mistakes on this tab please let me know and i’ll see if I need to fix it.  Well, here it is,  have fun playing!

INTRO:
G------------------------------------------------------
D------------------------------------------------------
A------------------------------------------------------
E----5-5-5-5---4-4-4-4---7-7-7-7---0-0-0-0----         3x

G------------------------------------------------------
D------------------------------------------------------
A------------------------------------------------------
E----5-5-5-5---4-4-4-4---7~----------------------          

VERSE:
G------------------------------------------------------
D------------------------------------------------------
A------------------------------------------------------
E---5-5-5-5---4-4-4-4---7-7-7-7---0-0-0-0-----         

G------------------------------------------------------
D------------------------------------------------------
A----------------------------------------7-7-7-7-----
E---5-5-5-5---4-4-4-4---7-7-7-7-----------------         

G------------------------------------------------------
D------------------------------------------------------
A------------------------------------------------------
E---5-5-5-5---4-4-4-4---7-7-7-7---0-0-0-0-----         

END OF VERSE 1:
G------------------------------------------------------
D------------------------------------------------------
A------------------------------------------------------
E----5-5-5-5---4-4-4-4---7~----------------------          

CHORUS:
G----------------------------------------------------------------------------
D----------------------------------------------------------------------------
A----------------------------------------------------------------------------
E---0-0x---7-7x---2-2-2-2---5-5-5-5---0-0-0-0---7-7-7-7---2-2-2-2x-----------

G-------------------------------------------------------------------------
D-------------------------------------------------------------------------
A-------------------------------------------------------------------------
E---0-0X---7-7X---2-2-2-2---5-5-5-5---9-9-9-9-9-9-9-9---7-7-7-7-7-7-7-7---

END OF VERSE 2:
G------------------------------------------------------
D------------------------------------------------------
A------------------------------------------------------
E----5-5-5-5---4-4-4-4---7-7-7-7-7-7-7-7------          

INSTRUMENTAL/BRIDGE THING:
G--------------------------------------------
D--------------------------------------------
A--------------------------------------------
E---5-5-5-5---4-4-4-4---7X-7X-7--0-0-0-0-----     3x

G-------------------------------------------
D-------------------------------------------
A-------------------------------------------
E---5-5-5-5---4-4-4-4---7(16 times)---------

END OF VERSE 3 (guitar only during 1st half):
G--------------------------------------------------------------
D--------------------------------------------------------------
A--------------------------------------------------------------
E---5-5-5-5---4-4-4-4---7-7-7-7-7-7-7-7-7-7-7-7-7-7-7-7)-------

CHORUS:
G------------------------------------------------------------------------------
D------------------------------------------------------------------------------
A------------------------------------------------------------------------------
E---0-0x----------0-0x----------0~-----------0-0-0-0-0-0-0-0-0-0-0-0-0-0-0-0---

G----------------------------------------------------------------------------
D----------------------------------------------------------------------------
A----------------------------------------------------------------------------
E---0-0x---7-7x---2-2-2-2---5-5-5-5---0-0-0-0---7-7-7-7---2-2-2-2x-----------

G----------------------------------------------------------------------------
D----------------------------------------------------------------------------
A----------------------------------------------------------------------------
E---0-0x---7-7x---2-2-2-2---5-5-5-5---0-0-0-0---7-7-7-7---2-2-2-2---5-5-5-5--

G------------------------------------------------
D------------------------------------------------
A------------------------------------------------
E---0-0-0-0---7-7-7-7---2-2-2-2---5-5-5-5--------            16x

PLAYING ORDER:
intro
verse
e.o.v. 1
chorus
verse
e.o.v. 2
chorus
bridge
e.o.v. 3
chorus
Show more