*=4
                                                           @=8

start
G------------------------------------------------------------------------------------
D------------------------------------------------------------------------------------
A-----------------------------------------------------------------------------------
E-0-0-4------------------------------------------------------------------------------

CHORUS
G-----------------------------------------------------------------------------------
D-----------------------------------------------------------------------------------
A-----------------------------------------------------------------------------------
E-4*-1*-4*-9*-4*-1*-9*-11*----------------------------------------------------------

VERSE
G------------------------------------------------------------------------------------
D------------------------------------------------------------------------------------
A------------------------------------------------------------------------------------
E-4@-1@-9@-11@-----------------------------------------------------------------------

PRECHORUS
G------------------------------------------------------------------------------------
D------------------------------------------------------------------------------------
A------------------------------------------------------------------------------------
E-9-11-13-11-9-11--------------------------------------------------------------------

CHORUS
G------------------------------------------------------------------------------------
D------------------------------------------------------------------------------------
A------------------------------------------------------------------------------------
E-4-4--1-1--4-4--9-9--4-4--1-1--9-9--1-1---------------------------------------------

G------------------------------------------------------------------------------------
D------------------------------------------------------------------------------------
A------------------------------------------------------------------------------------
E-4*-1*-4*-9*-4*-1*-9*-11*-----------------------------------------------------------

      VERSE,PRECHORUS Y CHORUS(AGAIN)

INTERLUDE
G------------------------------------------------------------------------------------
D------------------------------------------------------------------------------------
A------------------------------------------------------------------------------------
E-4*-1*-9*-11*-----------------------------------------------------------------------

PRECHORUS
G------------------------------------------------------------------------------------
D------------------------------------------------------------------------------------
A------------------------------------------------------------------------------------
E-9-11-13@-11@-9@-11-----------------------------------------------------------------

INTRLUDE 2
G------------------------------------------------------------------------------------
D------------------------------------------------------------------------------------
A------------------------------------------------------------------------------------
E-4-1-9-11---------------------------------------------------------------------------

CHORUS
G------------------------------------------------------------------------------------
D------------------------------------------------------------------------------------
A------------------------------------------------------------------------------------
E-4*-1*-4*-9*-4*-1*-9*-11*-----------------------------------------------------------
><5

FINAL
G------------------------------------------------------------------------------------
D------------------------------------------------------------------------------------
A------------------------------------------------------------------------------------
E-4*-1*-4*-9*-4*-1*-9@-11@-4---------------------------------------------------------


disfruten la cancion maricones culiaos y wea y dense una vuelta por "www.alegale.tk"que easta pagina esta muy buena.chau  y un saludo pal wati(skandar)que gracias a el le tenemos un nombre a la banda(eso creo)
Show more