Like a Movie - Midtown
Drive-Thru Records

Intro
G:-------------------------------------------------------------|
D:-------------------------------------------------------------|
A:------6666------4444------6666-4444-6666---------------------|
E:-4444------1111------4444------------------------------------|

Verse A
G:-------------------------------------------------------------|
D:-------------------------------------------------------------|
A:-----------4444-6666-----------------------------------------|
E:-4444-1111---------------------------------------------------|

Prechorus A
G:-------------------------------------------------------------|
D:-------------------------------------------------------------|
A:-4-4-4-4-6-6-6-6-8-8-8108-6-6-686-4-4-444-6-6-666------------|
E:-------------------------------------------------------------|

Chorus
G:-------------------------------------------------------------|
D:-------------------------------------------------------------|
A:----66----44----66-4444-6666---------------------------------|
E:-44----11----44----------------------------------------------|

G:-------------------------------------------------------------|
D:-------------------------------------------------------------|
A:------6666------4444------6666-4444-6666---------------------|
E:-4444------1111------4444------------------------------------|

Verse B
G:-------------------------------------------------------------|
D:-------------------------------------------------------------|
A:-----------4444-6666-----------------------------------------|
E:------1111---------------------------------------------------|

Verse C
G:-------------------------------------------------------------|
D:-------------------------------------------------------------|
A:-----------------4-44-44-6-66-64-----------------------------|
E:-4-44-44-1-11-11---------------------------------------------|

Prechorus B
G:-------------------------------------------------------------|
D:-------------------------------------------------------------|
A:---4*-6*-8-8-888-6-6-666-4-4-444-6m--------------------------|
E:-------------------------------------------------------------|

Bridge A
G:-------------------------------------------------------------|
D:-------3*----------------------------------------------------|
A:----6*----4*----6*-------------------------------------------|
E:-4*----------4*----------------------------------------------|

Bridge B
G:-------------------------------------------------------------|
D:-------------------------------------------------------------|
A:-----66666-888-44444-----66666-44444444----------------------|
E:-444-----------------444-------------------------------------|

Outro
G:-------------------------------------------------------------|
D:-------------------------------------------------------------|
A:------6666------4444------6666-4444-6666-6666-6666-6666------|
E:-4444------1111------4444---------------------------------4*-|

Intro x2
Verse A x4
Prechorus A x1
Chorus x2
Verse B x1
Verse A x1
Prechorus A x1
Verse C x2
Prechorus B x1
Bridge A x1
Bridge B x2
Intro x 3
Outro x 1
Show more