Intro/Chorus 2 (x2)
G---------------------------------------
D-3333------0000-2222-3333--------------
A------3333----------------3333-00000000
E---------------------------------------
                                 
Verse 1 (start after Gabe sings "Woke Up Today...")
G------------------------------------------------------------------------------
D----------------------------22222222-2-0---------------------22222222-44444444
A-------------------55555555--------------3-33333333-55555555------------------
E-33333333-00000000------------------------------------------------------------
                                                                              
Prechorus
G--------------------------------------------------------------------
D----------22222222-44444444-4-2-------------------------------------
A--------------------------------55555555-00000000-55555555----------
E-55555555-----------------------------------------------------------
                                                                              
Chorus 1(you play this once and then go to Chorus 2,only use Chorus 1 on 2nd & 3rd chorus)
G---------------------------
D-33----00-22-33------------
A----33----------33-00000000
E---------------------------

Verse 2  
G------------------------------------------------------------------
D----------------22222222-2-0---------------------22222222-44444444
A-------55555555--------------3-33333333-55555555------------------
E-33-3/------------------------------------------------------------

Bridge (1:46)
G-----------------------------------------------------------------------------
D--------222222--------444444--------222222--------444444---------------------
A-333333--------555555--------333333--------555555--------0--5----------------
E-----------------------------------------------------------------------------

Bridge 2 (2:27)
G-----------------------------------------------------------------------------
D-----------------------------------------------------------------------------
A-----2-0---------------------------------------------------------------------
E-3-0-----3-0-----------------------------------------------------------------

Bridge 3 (2:40)
G-----------------------------------------------------------------------------
D----------333----------------------------------333---------------------------
A-----5555-----3333-----5555-333-3-5-0-----5555-----3333-----5555-33333333----
E-555---------------555----------------555---------------555------------------

Outro
G-----------------------------------------------------------------------------
D-----------------------------------------------------------------------------
A-00000000--------------------------------------------------------------------
E-----------------------------------------------------------------------------


Intro 
Verse 1
Prechorus
Chorus 1
Chorus 2
Verse 2
Chorus 1
Chorus 2
Bridge
Bridge 2
Bridge 3
Chorus 2 x 2
Outro

It sounds good to me just rate me because this is my first tab and i want to kno if its correct or not.
Show more