Riff 1:
G: -----------------------------------------
D: -----------------------------------------
A: -------------------------------4444----
E: ----6666----1111----3333------------

G: -----------------------------------------
D: -----------------------------------------
A: -----------6666----4444----666-----
E: ----6666---------------------------6---

Riff 2:
G: --------------------------------------------------------------
D: --------------------------------------------------------------
A: -------------------------------4 444444----6 666666----
E: ----6 666666----3 333333--------------------------------

Riff 3:
G: ------------------------------------------------------
D: ------------------------------------------------------
A: ----4 44444----6 66666----8 8888----6666----
E: ------------------------------------------------------

G: -------------------------------
D: -------------------------------
A: ----4 4444----6 66666----
E: -------------------------------

Riff 4:
G: -------------------------------------------------
D: -------------------------------------------------
A: ----------------------44------66----44----66
E: ----66----11----33------66-------------------

G: -----------------------------------------
D: -----------------------------------------
A: -------------------------------4444----
E: ----6666----1111----3333------------

G: ----------------------------------------
D: ----------------------------------------
A: -----------6666----4444----6666---
E: ----6666------------------------------

Riff 5:

G:
D:
A: ---------------------------4------------6---
E: ----6-------1------3------------6-----------

Order:
Riff 1 - 2x
[pause]
Riff 2 - 2x
Riff 3 - 1x
Riff 4 - 1x
Riff 2 - 2x
Riff 3 - 1x
Riff 4 - 1x
Riff 2 - 2x
Riff 3 - 1x
[pause]
Riff 5 - 1x
Riff 1 - 6x

There it is guys. If you have any questions or anything IM me or e-mail me at XXxEmoLoserxXx@aol.com. Enjoy!
Show more