Midtown- Like A Movie
By Adam 

Intro/Chorus (sometimes with fill, sometimes without)
G|---------------------------------------------| 
D|---------------------------------------------| 
A|-----6-6------4-(3-1h3)------6-6-4-4-6-6-----| 
E|-4-4------1-1------------4-4-----------------| 

G|-----------------------------------| 
D|-----------------------------------| 
A|----6>----4>-(3-1h3)----6>-4>-6>---| 
E|-4>----1>------------4>------------| 

Verse 
G|-----------------------------------------------------------| 
D|-----------------------------------------------------------| 
A|-------4>-6>-----------------------------------------------| 
E|-4>-1>-----------------------------------------------------| 

Pre chorus 
G|--------------------------------------| 
D|--------------------------------------| 
A|-4>-6>-88-8108-6-66-686------------6>-| 
E|------------------------89-9999-89----| 

the fills may be a little off if you can do it better post it
Show more