-------------------------------------------------------------------------------
			    LIVING IN SPITE (Acoustic) - Midtown
-------------------------------------------------------------------------------

By:Vin Basciano & Mike Fredo

p = pulloff
h = hammer

Lead guitar - Intro and Riff 1
e|-5-3-2-0------------------5-3-2-0---------5-5-3-2--------------------------|
B|---------3-5-7-5-3-3--------------3-5-7-5----------------------------------|
G|---------------------4-2---------------------------------------------------|
D|---------------------------------------------------------------------------|
A|---------------------------------------------------------------------------|
E|---------------------------------------------------------------------------|

e|-5-3-2---2-3-5-3-2---2------5-----(5)--3-2h3p2-----------------------------|
B|-------5-----------5---5-3----(3)--------------3---------------------------|
G|---------------------------------------------------------------------------|
D|---------------------------------------------------------------------------|
A|---------------------------------------------------------------------------|
E|---------------------------------------------------------------------------|

Rythem Guitar - Intro
   Bm  C   G     Bm C  G  
   Bm  C   D  A  G      A D


  VERSE  
                          Bm
Tearing Pictures off the wall....
             C                G                 A
You took the fall from truth, so everyone could see, 
          Bm                 F#
You don't live your life for me
Em                G
You live for you,       And There's nothing I can do


(Play intro again)


Tearing pictures off the wall. You took the fall from truth, 
So everyone can see, you don't live your life for me.
You live for you.... And there's nothing I can do,

Bm            C                G
   But try to climb out of the trenches I've dug cause 
                          C                Bm
I can't see underground.     I'm not saying that I 
G                    A          Bm        C
Understand what it's like to be living in spite

But five years from now, it'll all seem so trite

I'm sleeping today so I can wake in your arms tonight



Guitar 2 plays this over the chorus
e|--2-2h3-2-----2--------2-2h3-2--------2------------------------------------|
B|---------------------------------------------------------------------------|
G|---------------------------------------------------------------------------|
D|---------------------------------------------------------------------------|
A|---------------------------------------------------------------------------|
E|---------------------------------------------------------------------------|

That's it! Any questions or comments Email me --->bisoder@hotmail.com


===============================================================================
Show more