Band 	- Midtown
Song 	- Make This Right (Bonus track on UK released album)
Album 	- Living Well Is The Best Revenge
Tabber 	- Ian Black (ian@midtownrockers.co.uk)
Site	- http://www.midtownrockers.co.uk

Intro/Chorus
[-------------------------------------------------------------]
[-------------------------------------------------------------]
[---8---6-----------------------------------------------------]
[-6-8-8-6----repeated-----------------------------------------]
[-6-6-8-4-----------------------------------------------------]
[-4---6-------------------------------------------------------]

Verse
[-------------------------------------------------------------]
[-------------------------------------------------------------]
[---------6------8--------5-5--6-6--5-5--8-8------------------]
[-6-------6------8--------5-5--6-6--5-5--8-6------------------] X2
[-6-[x16]-4-[x8]-6-[x8]---3-3--4-4--3-3--6-6------------------]
[-4-----------------------------------------------------------]
  .       .      .

[-------------------------------------------------------------]
[-------------------------------------------------------------]
[-6------10-10-8-8--6------10-10-8-8--------------------------]
[-6-ring-10-10-8-8--6-ring-10-10-8-8--------------------------]
[-4------8--8--6-6--4------8--8--6-6--------------------------]
[-------------------------------------------------------------]

[-------------------------------------------------------------]
[-------------------------------------------------------------]
[-66666-77777---10---8----------------------------------------]
[-66666-77777---10---8----------------------------------------]
[-44444-55555---8----6----------------------------------------]
[-------------------------------------------------------------]
   .     .

Intro/Chorus
Verse
Intro/Chorus

Solo (let each chord here ring)
[-------------------------------------------------------------]
[-------------------------------------------------------------]
[-----6-----------------6---7---10---8---7---10--12-----------]
[-3---6---6---------3---6---7---10---8---7---10--12-----------]
[-3---4---6--[x3]---3---4---5---8----6---5---8---10-----------]
[-1-------4---------1-----------------------------------------]

One clean chorus followed by distorted again till end.

--------------------------------------------------------------
Check out the official Midtown site at midtownrock.com
Show more