Midtown - Still Trying
tabbed by: vasily schpraga
tuning: half step down D# G# C# F#
___________________________________

> = strum to rhythm of song
* = ring

INTRO/VERSE

|------------------------------|
|--------------------------6>--|
|-------------------7>---------|
|--/2>----5>----0>------0>-----| X2

|----------------------------------------------|
|----------------------------------------------|
|----------------------------------2>----------|
|--2-22-2-2>--5-55-5>--7-5-4--0>-------2>--5*--|

CHORUS

|----------------------|
|----------------------|
|----------0>--2>--22--|
|--0>--2>--------------| X5

VERSE

------------------------------|
|-------------------------6>--|
|------------------7>---------|
|--2>----5>----0>------0>-----| X3

|-----------------------------------------------------|
|-------------------------------------------------7*--|
|----------------------------------2>----------7*-----|
|--2-22-2-2>--5-55-5>--7-5-4--0>-------2>--5*---------|

CHORUS

|----------------------|
|----------------------|
|----------0>--2>--22--|
|--0>--2>--------------| X3

|-------------------|
|-------------------|
|----------0>---2>--|
|--0>--2>-----------|


BRIDGE

|----------------------------------------------------------------------------------------------------|-----------------|
|----------------1-2-44-44------------------2-2-22--1-1-11---------------1-2-44--4-2-4--6-4-2--------|-----------------|
|--2-3-44-4-4-44----------------22-2-2-22------------------22--44-4-4-44----------------------4--2>--|---------00--22--|
|---------------------------22-----------------------------------------------------------------------|--00--22---------|


CHORUS 

|----------------------|
|----------------------|
|----------0>--2>--22--|
|--0>--2>--------------| play this till the end of the song end on D#.

________________________

feel free to correct
have fun.
Show more