song: Waiting for the news
artist: Midtown
tabber:LGN


ok...i think my tuning is wrong (im lazy and i havent checked my tuning in weeks)
and this song plays around with octaves alot...so if i missed a variation...its most likely an octave.


piano intro

riff one:
G-------5-----------------------
D7---3------3---777-555-33333333/
A-------------------------------
E-------------------------------

riff two:
G-------------------
D-------------------
A-------------------
E5--------5---------

riff one

riff three:
G--------------------------------
D--------------------------------
A--------------------------------
E000000000--5-5555-11111-000000000

G-----------------------
D-----------------------
A-----------------------
E5-5555-11111-33333-00000

riff four:
G---------------------------
D--------------------555-333
A---------------------------
E55-3h5-55p3h5-11-1p0------- 

G----------------------------
D----------------------------
A----------------------------
E55-3h5-55p3h5-11-1p0-111-333

Riff five:
G-----------------
D-----------------
A-----------------
E5---5---1---1-000

G----------------
D-----------//333
A----------------
E5--5---1---1----

G-------------------------------------------
D----------------33333--77777-5555-333333333
A----------55555----------------------------
E5-555-1111---------------------------------

riff three: the last note is  a 5 on the E string (hold it and slide down)

piano bride:
G------14------
D--------------
A--------------
E------------//

riff six:
G---------------------------------
D---------------------------------
A---------------------------------
E55-3h5-55p3h5-11-1p0-11p0h(1-3-1) x2
the ( )'s are there just to make it easier to read the notes, this part is played fast

G--------------------------------
D--------------33-3p2-33p2h(3-5-3)
A---------------------------------
E55-3h5-55p3h5--------------------

G---------------
D---------------
A---------------
E55-3h5-55p3h5-1

riff 7: this part seems to turn out different everytime i play it...
i do know that all of the variations are just octaves...
G-----------------
D-----------------
A---------3333----
E5555-1111----1111

G--------------------
D--------------333333
A---------3333-------
E5555-1111-----------

G-----------------
D-----3323----3333
A---------3333---
E5555-------------

G---------------
D----------------
A----------------
E5--------------1
Show more