• Song:

    Impressions That I Get

  • Artist:

    Mighty Mighty Bosstones

A Very Good Song From A Very Good Band. I Hope You Enjoy


INTRO
  '      '      '     '       '      ' ''   ' ''    ' ''
|-x-4-4--x-7-7--x-4-4--x-4-4--x-5-5--x-4-4--x-4-4--x-7-7-|
|-x-5-5--x-7-7--x-5-5--x-4-4--x-5-5--x-5-5--x-5-5--x-7-7-|
|-x-4-4--x-8-8--x-6-6--x-4-4--x-6-6--x-6-6--x-6-6--x-8-8-|
|--------------------------------------------------------|
|--------------------------------------------------------|
|--------------------------------------------------------|

VERSE
    E       B       C#m     A
|-x-4-x-4-x-7-x-7-x-4-x-4-x-5-x-5-|
|-x-5-x-5-x-7-x-7-x-5-x-5-x-5-x-5-|
|-x-4-x-4-x-8-x-8-x-6-x-6-x-6-x-6-|
|---------------------------------|
|---------------------------------|
|---------------------------------|

Before Chorus
|---------------------------|
|---------------------------|
|-------------2--2-2--2-2-2-|
|-4-4--4-4-4--2--2-2--2-2-2-|
|-4-4--4-4-4--0--0-0--0-0-0-|
|-2-2--2-2-2----------------|

CHORUS
  E                          B
|------------------------------------------------------
|-0-0--0-0-0--0--0-0--0-0-0--4-4--4-4-4--4--4-4--4-4-4-
|-1-1--1-1-1--1--1-1--1-1-1--4-4--4-4-4--4--4-4--4-4-4-
|-2-2--2-2-2--2--2-2--2-2-2--4-4--4-4-4--4--4-4--4-4-4-
|-2-2--2-2-2--2--2-2--2-2-2--2-2--2-2-2--2--2-2--2-2-2-
|-0-0--0-0-0--0--0-0--0-0-0----------------------------

 G#m   Sax Solo Before                     A
------------------------------------------------------|
-4-4--4-4-4--4--4-4--4-4-4--5-5--5-5-5--5--5-5--5-5-5-|
-4-4--4-4-4--4--4-4--4-4-4--4-4--4-4-4--4--4-4--4-4-4-|
-4-4--4-4-4--4--4-4--4-4-4--5-5--5-5-5--5--5-5--5-5-5-|
-4-4--4-4-4--4--4-4--4-4-4--5-5--5-5-5--5--5-5--5-5-5-|
-2-2--2-2-2--2--2-2--2-2-2--3-3--3-3-3--3--3-3--3-3-3-|



Well that's it, hope i helped and enjoy!
Show more