• Song:

    Royal Oil

  • Artist:

    Mighty Mighty Bosstones

  • Album:

    20th Century Masters: T...

Pretty much 100% correct, it sounds better than previous tabs
Michael Kelly (afireinside_86@hotmail.com)

LINE A
G--------------------------------------------------------- 
D--------------------------------------------------------- 
A---0-0---0--2--4--2-----2--2----2---4---2---------------- 
E---------------------2----------------------0--2--------- 

LINE B
G--------------------------
D--------------------------
A---0-0---0--2--4--2-----2-
E---------------------2----

LINE C
G--------------------------------------------------------- 
D------4---7-------4---7---------------------------------- 
A--5-5---------4-4----------2-2--4--2--0-----0------------ 
E-----------------------------------------2--------------- 

LINE D
G--------------------------------------------------------- 
D------4---7-------4---7---------------------------------- 
A--5-5---------4-4-------7-7-7-7-7-7-7-7--------------- 
E----------------------------------------------------- 

LINE E 
G-------------------------------------------
D-------------------------------------------
A----------------2~------------------------- 
E---5-5-5-5--------------------------------

ORDER

A X 1
B X 1
A X 3
C X 1
D X 1
A X 4
C X 3
D X 1
A X 3
C X 1
D X 1
A X 3
C X 2
D X 1
E X 4
C X 1
D X 1
A X 3
C X 1
D X 1
C X 4
Show more