• Song:

    Toxic Toast

  • Artist:

    Mighty Mighty Bosstones

Toxic Toast
Question The Answers
By The Mighty Mighty Bosstones
Tabbed by: Steve M.

Intro (after piano entrance)

e--------------------------------------------|
B--------------------------------------------|
G--------------------------------------------|
D-------------00-4----------------0----------|
A----0-0-2---------0--4-0--------------------|
E-------------------------------2------2-33--|     (play 4x)

e-----------|
B-----------|
G-----------|
D---5---7---|
A---5---7---|
E---3---5—--|

Chorus 
e----------------------|----------|-----------|
B----------------------|----------------------|
G---7------------------|----------|---7-------|
D---7----7---9---7-----|--9---7---|---7---7---|
A---5----7---9---7-----|--9---7---|---5---7---|
E--------5---7---5-----|--7---5---|-------5---|

Play chorus again, after second verse. Add this tag:

e-------|
B-------|
G---7---|
D---7---|
A---5---|
E-------|

Then play the guitar entrance, starting on the first F#.







Bridge (play with vibrato on the high G)

e------5------5-|                               e---------------|
B---3----33-----|                               B---------------|
G---------------|                               G---------------|
D---------------|                               D----5---7------|
A---------------|                               A----5---7------|
E---------------| (repeat ? times)              E----3---5------|

Play only the first part of the chorus repeated. Then play the guitar entrance, starting on the first F#.

That’s it! You’re done!

Have fun with these tabs.
Show more