• Song:

    Wrong Thing Right Then

  • Artist:

    Mighty Mighty Bosstones

  • Album:

    Wake Up Call

Mighty Might Bosstones

Wright Thing Right Then

tabbed by Kithkin

This is actually my first tab... i know that is said a
lot.  I probably made a few mistakes.  But it is
infinatly more right than the other tab for this song.



G-------0-2--------------0-2----------------0-2----------
D-----02---3-32--------02---3-32-------0--02---3-32------
A--03----------3----03----------3-h5p3--3----------3--03-
E-3----------------3---------------------------------3---
  |Intro - - - - - - - - - - - - - - - - ||Verse -(rpt)-|
G----------------0---------------------------------------
D-22--------------3------332------3p2h3-------3p2h3------
A---3-03-----------0-0-------033-------3---033-----3---0-
E----3-------33-----3-11----3------------3-----------3---
|End of Ver||Chorus - - - - - - - - - - - - - - - - - - 
G--------------------------------------------------------
D--------------------------------------------------------
A--3-3-3------------3------------------------------------
E---------------3-1--------------------------------------
|End of Chorus||Bridge thing|             
G------------0---00--------------------------------------
D-------------320--323-320-33202-------------------------
A--320-33202--------------3------320-33202---------------
E-----3-----------------------------3--------------------
|Faster thing - - - - - - - - - - - - - - -|

G----------------------0--------------5420---5420-----5--
D------------22---------3-------332-------32-----32------
A-----3--------3-03------0-0--------03------3------3-----
E-3-1-----------3---33----3--11----3---------------------
|Bridge x 2||+ Improve after... maybe? - - - - - - -||End|
Show more