• Song:

    Im In Love With A Stripper

  • Artist:

    Mike Jones

=slide


e|-----------------------------------------------------------------------------------------------------------------
A|-----------------------------------------------------------------------------------------------------------------
D|-----------------------------------------------------------------------------------------------------------------
G|--------35------------------------------------------------------------------------------------------------------
B|---35--------57------------------------------------------------------------------------------------------------
E|-----------------------------------------------------------------------------------------------------------------
these verses keep alternating throughout the song
e|-----------------------------------------------------------------------------------------------------------------
A|-----------------------------------------------------------------------------------------------------------------
D|-----------------------------------------------------------------------------------------------------------------
G|---------35-----------------------------------------------------------------------------------------------------
B|----35--------57-----------------------------------------------------------------------------------------------
E|---------------------79-----------------------------------------------------------------------------------------

this is pretty much what they play but i think it sounds better on an acoustic guitar
please rate!!!!------ENJOY!
Show more