sponsored links
millencolin - Farewell My Hell
Tabed by: pjerkan
mail: pjerkan@gmail.com

I think this would be right just listen to the song to feel the rhytm.


Intro gtr.1

e---------------------------|
B---------------------------|
G-----4-4-4-4-4-4-4-4-4-----|
D---------------------------|Play like this, listen to the song to feel the rhytm
A-----2-2-2-2-2-2-2-2-2-----|
E---------------------------|

Intro gtr.1
 
e---------------------------|
B---------------------------|
G------12-11-14-7-6-4-------|
D---------------------------| x3
A------10--9-12-5-4-2-------|
E---------------------------|

Intro gtr.2

e---------------------------|
B---------------------------|
G---------------7-6-4-------|
D---------------------------| 
A---------------5-4-2-------|
E--------3-2-5--------------|

Verse both guitars

e-----------------------------------------------|
B-----------------------------------------------|
G-----------------------------------------------|
D-----9-x-x-x-x-9-x-x-x-x--5-5-5-7-7-7-9-9-9----| x2 Listen too feel the rhytm
A-----9-x-x-x-x-9-x-x-x-x--5-5-5-7-7-7-9-9-9----|
E-----7-x-x-x-x-7-x-x-x-x--3-3-3-5-5-5-7-7-7----|


Chorus gtr.1

e------------------------------------------------|
B------------------------------------------------|
G-------------------------------6-7-9------------|
D------5-----7-----4-----9-----------------------| x2
A------5-x8--7-x8--4-x8--9-x8---4-5-7------------|
E------3-----5-----2-----7-----------------------|

Chorus gtr.2

e-----------------------------|
B-----------------------------|
G-----------------------------|
D---5-----7-----4-----9-------| x2
A---5-x8--7-x8--4-x8--9-x8----|
E---3-----5-----2-----7-------|


Chorus gtr.1 part 2

e----------------------------------------------------------------------------------------|
B----------------------------------------------------------------------------------------|
G------------------12-12-12-12-12-12-11-11-11--11-11-11-9-9-9-9-9-9---------6-7-9-6--7-9-|
D-5-5-5-5-5-5-5-5---------------------------------------------------7-7-7-7--------------|
A-5-5-5-5-5-5-5-5--10-10-10-10-10-10--9--9--9--9--9--9--7-7-7-7-7-7-7-7-7-7-4-5-7-4--5-7-|
E-3-3-3-3-3-3-3-3---------------------------------------------------5-5-5-5--------------|

Chorus gtr.2 part 2

e----------------------------------------------------------------------------------------|
B----------------------------------------------------------------------------------------|
G----------------------------------------------------------------------------------------|
D-5-5-5-5-5-5-5-5-5-5-5-5-5-5-5-5-7-7-7-7-7-7-7-7-7-7-7-7-7-7-7-7-7-7-7-7-7---4--5--7----|
A-5-5-5-5-5-5-5-5-5-5-5-5-5-5-5-5-7-7-7-7-7-7-7-7-7-7-7-7-7-7-7-7-7-7-7-7-7---4--5--7----|
E-3-3-3-3-3-3-3-3-3-3-3-3-3-3-3-3-5-5-5-5-5-5-5-5-5-5-5-5-5-5-5-5-5-5-5-5-5---2--3--5----|

Vers gtr.1

e---------------------------------------------|
B---------------------------------------------|
G---------------12-11-14-7-6-4--12-11-14-7-6--|
D--9-9-9-9-9-9--------------------------------|
A--9-9-9-9-9-9--10--9-12-5-4-2--10--9-12-5-4--|
E--7-7-7-7-7-7--------------------------------|

Vers gtr.1 part 2

e---------------------------------------------|
B---------------------------------------------|
G---------------------------------------------|
D----9-x-x-x-x-9-x-x-x-x--5-5-5-7-7-7-9-9-9---|
A----9-x-x-x-x-9-x-x-x-x--5-5-5-7-7-7-9-9-9---|
E----7-x-x-x-x-7-x-x-x-x--3-3-3-5-5-5-7-7-7---|

Vers gtr.2

e---------------------------------------------|
B------------------------7-6-4--12-11-14-7-6--|
G---------------------------------------------|
D--9-9-9-9-9-9-----------5-4-2----------------|
A--9-9-9-9-9-9------------------10--9-12-5-4--|
E--7-7-7-7-7-7---3--2--5----------------------|

Vers gtr.2 part 2

e---------------------------------------------|
B---------------------------------------------|
G---------------------------------------------|
D----9-x-x-x-x-9-x-x-x-x--5-5-5-7-7-7-9-9-9---|
A----9-x-x-x-x-9-x-x-x-x--5-5-5-7-7-7-9-9-9---|
E----7-x-x-x-x-7-x-x-x-x--3-3-3-5-5-5-7-7-7---|

Chorus gtr.1

e------------------------------------------------|
B------------------------------------------------|
G-------------------------------6-7-9------------|
D------5-----7-----4-----9-----------------------| x2
A------5-x8--7-x8--4-x8--9-x8---4-5-7------------|
E------3-----5-----2-----7-----------------------|

Chorus gtr.2

e-----------------------------|
B-----------------------------|
G-----------------------------|
D---5-----7-----4-----9-------| x2
A---5-x8--7-x8--4-x8--9-x8----|
E---3-----5-----2-----7-------|

Chorus gtr.1 part 2

e----------------------------------------------------------------------------------------|
B----------------------------------------------------------------------------------------|
G------------------12-12-12-12-12-12-11-11-11--11-11-11-9-9-9-9-9-9---------6-7-9-6--7-9-|
D-5-5-5-5-5-5-5-5---------------------------------------------------7-7-7-7--------------|
A-5-5-5-5-5-5-5-5--10-10-10-10-10-10--9--9--9--9--9--9--7-7-7-7-7-7-7-7-7-7-4-5-7-4--5-7-|
E-3-3-3-3-3-3-3-3---------------------------------------------------5-5-5-5--------------|

Chorus gtr.2 part 2

e----------------------------------------------------------------------------------------|
B----------------------------------------------------------------------------------------|
G----------------------------------------------------------------------------------------|
D-5-5-5-5-5-5-5-5-5-5-5-5-5-5-5-5-7-7-7-7-7-7-7-7-7-7-7-7-7-7-7-7-7-7-7-7-7---4--5--7----|
A-5-5-5-5-5-5-5-5-5-5-5-5-5-5-5-5-7-7-7-7-7-7-7-7-7-7-7-7-7-7-7-7-7-7-7-7-7---4--5--7----|
E-3-3-3-3-3-3-3-3-3-3-3-3-3-3-3-3-5-5-5-5-5-5-5-5-5-5-5-5-5-5-5-5-5-5-5-5-5---2--3--5----|

gtr.1

e----------------------------------------------------------------------------------------|
B----------------------------------------------------------------------------------------|
G-----------------------------7-7-7-7-9-9-10-10-6-6-6-6-7-7-9-9----------6-6-7-7---------|
D--5-x-x-x--7-x-x-x---4--5-7--7-7-7-7---------------------------9-9-9-9----------5-5-5-5-| x2
A--5-x-x-x--7-x-x-x---4--5-7--5-5-5-5-7-7--9--9-4-4-4-4-5-5-7-7-9-9-9-9--4-4-5-5-5-5-5-5-|
E--3-x-x-x--5-x-x-x---2--3-5------------------------------------7-7-7-7----------3-3-3-3-|

gtr.2

e----------------------------------------------------------------------------------------|
B----------------------------------------------------------------------------------------|
G---12-11-7-------------------7-7-7-7-7-7-7-7-7-6-6-6-6-6-6-6-6--------------------------|
D---------------------4--5-7--7-7-7-7-7-7-7-7-7-6-6-6-6-6-6-6-6-9-9-9-9-9-9-9-9-5-5-5-5--| x2
A---10--9-7-----------4--5-7--5-5-5-5-5-5-5-5-5-4-4-4-4-4-4-4-4-9-9-9-9-9-9-9-9-5-5-5-5--|
E---------------------2--3-5------------------------------------7-7-7-7-7-7-7-7-3-3-3-3--|

gtr.1

e---------------------------|
B---------------------------|
G-----4-4-4-4-4-4-4-4-4-----|
D---------------------------|
A-----2-2-2-2-2-2-2-2-2-----|
E---------------------------|

gtr.2

e---------------------------|
B---------------------------|
G---------------7-6-4-------|
D---------------------------| 
A---------------5-4-2-------|
E--------3-2-5--------------|

Chorus gtr.1

e------------------------------------------------|
B------------------------------------------------|
G-------------------------------6-7-9------------|
D------5-----7-----4-----9-----------------------| x2
A------5-x8--7-x8--4-x8--9-x8---4-5-7------------|
E------3-----5-----2-----7-----------------------|

Chorus gtr.2

e-----------------------------|
B-----------------------------|
G-----------------------------|
D---5-----7-----4-----9-------| x2
A---5-x8--7-x8--4-x8--9-x8----|
E---3-----5-----2-----7-------|

gtr.1

e----------------------------------------------------------------------------------------|
B----------------------------------------------------------------------------------------|
G------------------12-12-12-12-12-12-11-11-11--11-11-11-9-9-9-9-9-9---------6-7-9-6--7-9-|
D-5-5-5-5-5-5-5-5---------------------------------------------------7-7-7-7--------------|
A-5-5-5-5-5-5-5-5--10-10-10-10-10-10--9--9--9--9--9--9--7-7-7-7-7-7-7-7-7-7-4-5-7-4--5-7-|
E-3-3-3-3-3-3-3-3---------------------------------------------------5-5-5-5--------------|

gtr.2

e----------------------------------------------------------------------------------------|
B----------------------------------------------------------------------------------------|
G----------------------------------------------------------------------------------------|
D-5-5-5-5-5-5-5-5-5-5-5-5-5-5-5-5-7-7-7-7-7-7-7-7-7-7-7-7-7-7-7-7-7-7-7-7-7---4--5--7----|
A-5-5-5-5-5-5-5-5-5-5-5-5-5-5-5-5-7-7-7-7-7-7-7-7-7-7-7-7-7-7-7-7-7-7-7-7-7---4--5--7----|
E-3-3-3-3-3-3-3-3-3-3-3-3-3-3-3-3-5-5-5-5-5-5-5-5-5-5-5-5-5-5-5-5-5-5-5-5-5---2--3--5----|

Outro Both guitars

e---------------------|
B---------------------|
G---------------------|
D---9-----5-----7-----| x2
A---9-x6--5-x6--7-x6--|
E---7-----3-----5-----|
Show more
sponsored links
sponsored links