• Song:

    In The Night Garden - Iggle Piggle Theme

  • Artist:

    Misc Cartoons

Iggle Piggle Theme

Figured out by ear to play to my 1 year old son.

Sounds best on a classical guitar.

Enjoy!


E:--2-5-3-2-3-2----------5-7-5------------------------:
B:--------------5--5-7-8-------8-7-7-5----------------:
G:----------------------------------------------------:
D:----------------------------------------------------:
A:----------------------------------------------------:
E:----------------------------------------------------:

E:--2-5-3-2-3-2----------5-7-5-7-9-10-----------------:
B:--------------5--5-7-8------------------------------:
G:----------------------------------------------------:
D:----------------------------------------------------:
A:----------------------------------------------------:
E:----------------------------------------------------:
Show more