• Song:

    Pawn Stars Theme

  • Artist:

    Misc Television

Tabbed by: LostLegion
Tuning: Standard (EADGBe)

e|-------------------------------------------------------------------------------|
B|---------------------------------------------------------10/13-11~~~~----------|
G|-------------------------------------------------------------------------------|
D|------12\-----5-5-5-5---8-8-8-8--------3-3-3-3---------------------------------|
A|------12\-----5-5-5-5---8-8-8-8--------3-3-3-3---------------------------------|
E|---12-12\-----3-3-3-3---6-6-6-6--------1-1-1-1---------------------------------|

e|---------------------------------------------------------------------------|
B|---------------------------------------------------------------------------|
G|-----------------------------10b(12)--12(14)--13(15)-----------------------|
D|---5-5-5-5---8-8-8-8-------------------------------------------------------|
A|---5-5-5-5---8-8-8-8-------------------------------------------------------|
E|---3-3-3-3---6-6-6-6-------------------------------------------------------|

e|---------------------------------------------------------------------------|
B|---------------------------------------------------------------------------|
G|----5/7--10-5~~---3-5-5/7--10--5--3-----5/7-10--5~~-3~~--------------------|
D|------------------------------------------------------------5-8-5~~~~~~~---|
A|------------------------------------------------------------5-8-5~~~~~~~---|
E|------------------------------------------------------------3-6-3~~~~~~~---|



************************************

| /   slide up
| \   slide down
| h   hammer-on
| p   pull-off
| ~   vibrato
| +   harmonic
| x   Mute note
| b   Bend
| pb  Pre-bend
| br  Bend release
| pbr Pre-bend release
| brb Bend release bend

************************************
Show more