• Song:

    Stargate Sg-1 Ascension Theme

  • Artist:

    Misc Television

-----------------------------------------------
Stargate SG-1 Ascension Theme - Misc Television
-----------------------------------------------

Tabbed by: Blinkaholic
Email: josh.americanidiot@gmail.com

Tuning: Standard

Most notably heard on Season 5, Episode 3: "Ascension"
and Season 5, Episode 21: "Meridian".

Tabbed entirely by ear...

e|---------------------------------------------0-------------------0------------------------|
B|---------------0-1-0-----3--0------0-1-0--------0------0-1-0--------3--1-----0------------|
G|-2---2--2---2--2------2-----2---2--2------2-----2---2--0------2-----------2--2---2--2---2-|
D|--------------------------------------------------------------------3---------------------|
A|------------------------------------------------------------------------------------------|
E|------------------------------------------------------------------------------------------|

END

************************************

| /   slide up
| \   slide down
| h   hammer-on
| p   pull-off
| ~   vibrato
| +   harmonic
| x   Mute note
| b   Bend
| pb  Pre-bend
| br  Bend release
| pbr Pre-bend release
| brb Bend release bend

************************************
Show more