• Song:

    X-men Theme

  • Artist:

    Misc Television

Tabbed By: Brenten Blevins 

~I don't own the rights to this song. This is just my interpretation~

Tuning: ebgdae 

Guide: 
h- Hammer on
p- pull off
~- sustain
/- slide

e|-------------------------------------------------------------------------------|
b|-------------------------------------------------------------------------------|
g|-------------------------------------------------------------------------------|
d|-------10h13-12~-10------------10h13-12~-10------------10h13-12~-10/13~~-12-10-|
a|-10h13--------------10---10h13--------------11---10h13-------------------------|
e|-------------------------------------------------------------------------------|


e|-------------------------------------------------------------------------------|
b|-------------------------------------------------------------------------------|
g|-------10h13-12~-10------------10h13-12~-10------------------------------------|
d|-10h13--------------10---10h13--------------11---------10h13-12~-10/13~~-12-10-|
a|-------------------------------------------------10h13-------------------------|
e|-------------------------------------------------------------------------------|


e|---------------------------------------------------------------------|
b|---------------------------------------------------------------------|
g|---------------------------------------------------------------------|
d|---------------------------------------------------------------------|
a|-11-10-8-11-10-8-11-10-8-11-10-8-13-11-10-13-11-10-13-11-10-13-11-10-|
e|---------------------------------------------------------------------|


e|-----------------------------------------|
b|-----------------------------------------|
g|-------------------------------------12~-|
d|----------------------------------13-----|
a|-15-13-11-15-13-11-15-13-11-13-15--------|
e|-----------------------------------------|
    

e|-------------------------------------------------------------------------------|
b|-------------------------------------------------------------------------------|
g|-------------------------------------------------------------------------------|
d|-------10h13-12~-10------------10h13-12~-10------------10h13-12~-10/13~~-12-10-|
a|-10h13--------------10---10h13--------------11---10h13-------------------------|
e|-------------------------------------------------------------------------------|

e|---------------------------------------------------------------------------|
b|---------------------------------------------------------------------------|
g|-------10h13-12~-10------------10h13-12~-10--------------------------------|
d|-10h13--------------10---10h13--------------11---------10h13-12-13~~-12-10-|
a|-------------------------------------------------10h13---------------------|
e|---------------------------------------------------------------------------|

e|---------------------------------------------------------------------|
b|---------------------------------------------------------------------|
g|---------------------------------------------------------------------|
d|---------------------------------------------------------------------|
a|-11-10-8-11-10-8-11-10-8-11-10-8-13-11-10-13-11-10-13-11-10-13-11-10-|
e|---------------------------------------------------------------------|

e|-----------------------------------------|
b|-----------------------------------------|
g|-------------------------------------12~-|
d|----------------------------------13-----|
a|-15-13-11-15-13-11-15-13-11-13-15--------|
e|-----------------------------------------|

e|----------------------------|
b|----------------------------|
g|----------------------------|
d|-------10h13-12-13~~--12-10-|
a|-10h13----------------------|
e|----------------------------|
Show more