• Song:

    Barcadia - Eurotrash

  • Artist:

    Misc Unsigned Bands

Eurotrash - Barcadia

I'm about 90% sure this is right.

Drop C

Intro
d|------------------------------------------------------------------|
a|------------------------------------------------------------------|
f|------------------------------------------------------------------|
c|--0-0-0-0-0-0-0-0-1-1-1-1-3-3-3-3-0-0-0-0-0-0-0-0-4-4-4-4-3-3-3-3-| x4
g|--0-0-0-0-0-0-0-0-1-1-1-1-3-3-3-3-0-0-0-0-0-0-0-0-4-4-4-4-3-3-3-3-|
c|--0-0-0-0-0-0-0-0-1-1-1-1-3-3-3-3-0-0-0-0-0-0-0-0-4-4-4-4-3-3-3-3-|

d|------------------------------------------------------------------|
a|------------------------------------------------------------------|
f|------------------------------------------------------------------|
c|--0-0-0-0-0-0-0-0-0-0-0-0-0-0-0-0-1-1-1-1-1-1-1-1-3-3-3-3-3-3-3-3-| x2
g|--0-0-0-0-0-0-0-0-0-0-0-0-0-0-0-0-1-1-1-1-1-1-1-1-3-3-3-3-3-3-3-3-|
c|--0-0-0-0-0-0-0-0-0-0-0-0-0-0-0-0-1-1-1-1-1-1-1-1-3-3-3-3-3-3-3-3-|

Verse

d|---------------------------|
a|---------------------------|
f|---------------------------|
c|---------------------------| x4
g|-0000-0000-5-8-5-5-3-3-6-5-|
c|-0000-0000-5-8-5-5-3-3-6-5-|
pm **** ****

d|------------------------|
a|------------------------|
f|------------------------|
c|------------------------| x2
g|-0-0-0--333-555-222-444-|
c|-0-0-0--333-555-222-444-|
pm * * *  *** *** *** ***

d|---------------------------------|
a|---------------------------------|
f|---------------------------------|
c|---------------------------------|
g|-0-0-0-0-0-0-0-0-333-555-222-444-|
c|-0-0-0-0-0-0-0-0-333-555-222-444-|
pm * * * * * * * * *** *** *** ***

d|-------------------------|
a|-------------------------|
f|-------------------------|
c|-------------------------|
g|-0-0-0-0-0-0-0-0-3-5-2-4-|
c|-0-0-0-0-0-0-0-0-3-5-2-4-|
pm * * * * * * * * 

d|-------------------------|
a|-------------------------|
f|-------------------------|
c|-0-----------------------| x4
g|-0-0-0-0-0-0-0-0-3-5-2-4-|
c|-0-0-0-0-0-0-0-0-3-5-2-4-|
pm   * * * * * * * 

d|------------------------------------------------------------------|
a|------------------------------------------------------------------|
f|------------------------------------------------------------------|
c|--0-0-0-0-0-0-0-0-1-1-1-1-3-3-3-3-0-0-0-0-0-0-0-0-4-4-4-4-3-3-3-3-| x4
g|--0-0-0-0-0-0-0-0-1-1-1-1-3-3-3-3-0-0-0-0-0-0-0-0-4-4-4-4-3-3-3-3-|
c|--0-0-0-0-0-0-0-0-1-1-1-1-3-3-3-3-0-0-0-0-0-0-0-0-4-4-4-4-3-3-3-3-|

d|-------------------------------------------------|
a|-------------------------------------------------|
f|-------------------------------------------------|
c|-------------------------------------------------| x2
g|-0----0--0---0-0-0---0----0--1-4-1-3-1-4-1-3-----|
c|-0----0--0---0-0-0---0----0--1-4-1-3-1-4-1-3-----|
pm *    *  *   * * *   *    *  * * * * * * * *

d|-------------------------------------------------------------|
a|-------------------------------------------------------------|
f|-------------------------------------------------------------|
c|-------------------------------------------------------------| x2
g|-0-0-0----0--0-0-0---0-0-0---0-0-0----0--1-4-1-3-1-4-1-3-----|
c|-0-0-0----0--0-0-0---0-0-0---0-0-0----0--1-4-1-3-1-4-1-3-----|
pm * * *    *  * * *   * * *   * * *    *  * * * * * * * *

Slower
d|-------------------------------------------------|
a|-------------------------------------------------|
f|-------------------------------------------------|
c|-------------------------------------------------| x2
g|-0----0--0---0-0-0---0----0--1-4-1-3-1-4-1-3-----|
c|-0----0--0---0-0-0---0----0--1-4-1-3-1-4-1-3-----|
pm *    *  *   * * *   *    *  * * * * * * * *

d|----------------------------------------------------------------|
a|----------------------------------------------------------------|
f|----------------------------------------------------------------|
c|-------------------------------------------------------------0--|
g|-0----0--0---0-0-0---0----0--1-4-1-3-1-4-1-3-1-4-1-3-1-4-1-3-0--|
c|-0----0--0---0-0-0---0----0--1-4-1-3-1-4-1-3-1-4-1-3-1-4-1-3-0--|
pm *    *  *   * * *   *    *  * * * * * * * * * * * * * * * *
Show more