• Song:

    Bringers Of The Sun - Mummificationonononon

  • Artist:

    Misc Unsigned Bands

Intro:

G:-----------------------------------------------|
D:-----------------------------------------------|
A:-----------------------------1-3---------------| (x2)
D:-----------------------------------------------|

Verse:

G:-----------------------------------------------|
D:-----------------------------------------------|
A:------------------1--3-------------------------|
D:-0000-000-00-00--------------------------------| (x5)

Chorus:

G:-------------------------------------------------|
D:-------------------------------------------------|
A:-------------------------------------------------|
D:---2 (x7)------6(x7)---------4(x7)-------8(x7)---|


Verse:

G:-----------------------------------------------|
D:-----------------------------------------------|
A:------------------1--3-------------------------|
D:-0000-000-00-00--------------------------------| (x5)

Solo:

G:---------------------------------------------------------------------------|
D:---------------------------------------------------------------------------|
A:---------------------------------------------------------------------------|
D:--0000--33--00--55--00--88--0--1010--12--1212--0--1010--0--88--0--55--0-33-|
                                 (^^These are 10s----^^)
G:-----------------------------------------------|
D:-----------------------------------------------|
A:-----------------------------------------------|
D:--0--22--0--32--0------------------------------|

Interlude:

G:----------------------------------------------------------------------|
D:-12--14--15--14--12--12--14--15--17--15--14--12-----------------------|
A:----------------------------------------------------------------------|
D:----------------------------------------------------------------------|

G:-----------------------------------------------------------------------|
D:-12--14--15--14--12--12--14--15--17--14--12----------------------------|
A:-----------------------------------------------------------------------|
D:-----------------------------------------------------------12~s---1----|p0

Breakdown:

G:-------------------------|
D:-------------------------|
A:-------------------------|
D:--000000---0000---00-----|

Chorus:

G:-----------------------------------------------|
D:-----------------------------------------------|
A:-----------------------------------------------|
D:---2 (x7)------6(x7)---------4(x7)-------8(x7)-|

Outro:

G:-----------------------------------------------|
D:-----------------------------------------------|
A:-----------------------------------------------|
D:--12~~~~~s--------------1--p0------------------|
Show more